  0
SECTION
  2
HEADER
  9
$ACADVER
  1
AC1027
  9
$ACADMAINTVER
 70
   125
  9
$DWGCODEPAGE
  3
ANSI_1252
  9
$REQUIREDVERSIONS
160
                 0
  9
$INSBASE
 10
0.0
 20
0.0
 30
0.0
  9
$EXTMIN
 10
1.000000000000000E+20
 20
1.000000000000000E+20
 30
1.000000000000000E+20
  9
$EXTMAX
 10
-1.000000000000000E+20
 20
-1.000000000000000E+20
 30
-1.000000000000000E+20
  9
$LIMMIN
 10
0.0
 20
0.0
  9
$LIMMAX
 10
12.0
 20
9.0
  9
$ORTHOMODE
 70
     0
  9
$REGENMODE
 70
     1
  9
$FILLMODE
 70
     1
  9
$QTEXTMODE
 70
     0
  9
$MIRRTEXT
 70
     0
  9
$LTSCALE
 40
1.0
  9
$ATTMODE
 70
     1
  9
$TEXTSIZE
 40
0.2
  9
$TRACEWID
 40
0.05
  9
$TEXTSTYLE
  7
Standard
  9
$CLAYER
  8
0
  9
$CELTYPE
  6
ByLayer
  9
$CECOLOR
 62
   256
  9
$CELTSCALE
 40
1.0
  9
$DISPSILH
 70
     0
  9
$DIMSCALE
 40
1.0
  9
$DIMASZ
 40
0.18
  9
$DIMEXO
 40
0.0625
  9
$DIMDLI
 40
0.38
  9
$DIMRND
 40
0.0
  9
$DIMDLE
 40
0.0
  9
$DIMEXE
 40
0.18
  9
$DIMTP
 40
0.0
  9
$DIMTM
 40
0.0
  9
$DIMTXT
 40
0.18
  9
$DIMCEN
 40
0.09
  9
$DIMTSZ
 40
0.0
  9
$DIMTOL
 70
     0
  9
$DIMLIM
 70
     0
  9
$DIMTIH
 70
     1
  9
$DIMTOH
 70
     1
  9
$DIMSE1
 70
     0
  9
$DIMSE2
 70
     0
  9
$DIMTAD
 70
     0
  9
$DIMZIN
 70
     0
  9
$DIMBLK
  1

  9
$DIMASO
 70
     1
  9
$DIMSHO
 70
     1
  9
$DIMPOST
  1

  9
$DIMAPOST
  1

  9
$DIMALT
 70
     0
  9
$DIMALTD
 70
     2
  9
$DIMALTF
 40
25.4
  9
$DIMLFAC
 40
1.0
  9
$DIMTOFL
 70
     0
  9
$DIMTVP
 40
0.0
  9
$DIMTIX
 70
     0
  9
$DIMSOXD
 70
     0
  9
$DIMSAH
 70
     0
  9
$DIMBLK1
  1

  9
$DIMBLK2
  1

  9
$DIMSTYLE
  2
Standard
  9
$DIMCLRD
 70
     0
  9
$DIMCLRE
 70
     0
  9
$DIMCLRT
 70
     0
  9
$DIMTFAC
 40
1.0
  9
$DIMGAP
 40
0.09
  9
$DIMJUST
 70
     0
  9
$DIMSD1
 70
     0
  9
$DIMSD2
 70
     0
  9
$DIMTOLJ
 70
     1
  9
$DIMTZIN
 70
     0
  9
$DIMALTZ
 70
     0
  9
$DIMALTTZ
 70
     0
  9
$DIMUPT
 70
     0
  9
$DIMDEC
 70
     4
  9
$DIMTDEC
 70
     4
  9
$DIMALTU
 70
     2
  9
$DIMALTTD
 70
     2
  9
$DIMTXSTY
  7
Standard
  9
$DIMAUNIT
 70
     0
  9
$DIMADEC
 70
     0
  9
$DIMALTRND
 40
0.0
  9
$DIMAZIN
 70
     0
  9
$DIMDSEP
 70
    46
  9
$DIMATFIT
 70
     3
  9
$DIMFRAC
 70
     0
  9
$DIMLDRBLK
  1

  9
$DIMLUNIT
 70
     2
  9
$DIMLWD
 70
    -2
  9
$DIMLWE
 70
    -2
  9
$DIMTMOVE
 70
     0
  9
$DIMFXL
 40
1.0
  9
$DIMFXLON
 70
     0
  9
$DIMJOGANG
 40
0.7853981633974483
  9
$DIMTFILL
 70
     0
  9
$DIMTFILLCLR
 70
     0
  9
$DIMARCSYM
 70
     0
  9
$DIMLTYPE
  6

  9
$DIMLTEX1
  6

  9
$DIMLTEX2
  6

  9
$DIMTXTDIRECTION
 70
     0
  9
$LUNITS
 70
     2
  9
$LUPREC
 70
     4
  9
$SKETCHINC
 40
0.1
  9
$FILLETRAD
 40
0.0
  9
$AUNITS
 70
     0
  9
$AUPREC
 70
     0
  9
$MENU
  1
.
  9
$ELEVATION
 40
0.0
  9
$PELEVATION
 40
0.0
  9
$THICKNESS
 40
0.0
  9
$LIMCHECK
 70
     0
  9
$CHAMFERA
 40
0.0
  9
$CHAMFERB
 40
0.0
  9
$CHAMFERC
 40
0.0
  9
$CHAMFERD
 40
0.0
  9
$SKPOLY
 70
     0
  9
$TDCREATE
 40
2458262.433773148
  9
$TDUCREATE
 40
2458262.433773148
  9
$TDUPDATE
 40
2458262.433773148
  9
$TDUUPDATE
 40
2458262.433773148
  9
$TDINDWG
 40
0.0000115741
  9
$TDUSRTIMER
 40
0.0000115741
  9
$USRTIMER
 70
     1
  9
$ANGBASE
 50
0.0
  9
$ANGDIR
 70
     0
  9
$PDMODE
 70
     0
  9
$PDSIZE
 40
0.0
  9
$PLINEWID
 40
0.0
  9
$SPLFRAME
 70
     0
  9
$SPLINETYPE
 70
     6
  9
$SPLINESEGS
 70
     8
  9
$HANDSEED
  5
21B
  9
$SURFTAB1
 70
     6
  9
$SURFTAB2
 70
     6
  9
$SURFTYPE
 70
     6
  9
$SURFU
 70
     6
  9
$SURFV
 70
     6
  9
$UCSBASE
  2

  9
$UCSNAME
  2

  9
$UCSORG
 10
0.0
 20
0.0
 30
0.0
  9
$UCSXDIR
 10
1.0
 20
0.0
 30
0.0
  9
$UCSYDIR
 10
0.0
 20
1.0
 30
0.0
  9
$UCSORTHOREF
  2

  9
$UCSORTHOVIEW
 70
     0
  9
$UCSORGTOP
 10
0.0
 20
0.0
 30
0.0
  9
$UCSORGBOTTOM
 10
0.0
 20
0.0
 30
0.0
  9
$UCSORGLEFT
 10
0.0
 20
0.0
 30
0.0
  9
$UCSORGRIGHT
 10
0.0
 20
0.0
 30
0.0
  9
$UCSORGFRONT
 10
0.0
 20
0.0
 30
0.0
  9
$UCSORGBACK
 10
0.0
 20
0.0
 30
0.0
  9
$PUCSBASE
  2

  9
$PUCSNAME
  2

  9
$PUCSORG
 10
0.0
 20
0.0
 30
0.0
  9
$PUCSXDIR
 10
1.0
 20
0.0
 30
0.0
  9
$PUCSYDIR
 10
0.0
 20
1.0
 30
0.0
  9
$PUCSORTHOREF
  2

  9
$PUCSORTHOVIEW
 70
     0
  9
$PUCSORGTOP
 10
0.0
 20
0.0
 30
0.0
  9
$PUCSORGBOTTOM
 10
0.0
 20
0.0
 30
0.0
  9
$PUCSORGLEFT
 10
0.0
 20
0.0
 30
0.0
  9
$PUCSORGRIGHT
 10
0.0
 20
0.0
 30
0.0
  9
$PUCSORGFRONT
 10
0.0
 20
0.0
 30
0.0
  9
$PUCSORGBACK
 10
0.0
 20
0.0
 30
0.0
  9
$USERI1
 70
     0
  9
$USERI2
 70
     0
  9
$USERI3
 70
     0
  9
$USERI4
 70
     0
  9
$USERI5
 70
     0
  9
$USERR1
 40
0.0
  9
$USERR2
 40
0.0
  9
$USERR3
 40
0.0
  9
$USERR4
 40
0.0
  9
$USERR5
 40
0.0
  9
$WORLDVIEW
 70
     1
  9
$SHADEDGE
 70
     3
  9
$SHADEDIF
 70
    70
  9
$TILEMODE
 70
     1
  9
$MAXACTVP
 70
    64
  9
$PINSBASE
 10
0.0
 20
0.0
 30
0.0
  9
$PLIMCHECK
 70
     0
  9
$PEXTMIN
 10
1.000000000000000E+20
 20
1.000000000000000E+20
 30
1.000000000000000E+20
  9
$PEXTMAX
 10
-1.000000000000000E+20
 20
-1.000000000000000E+20
 30
-1.000000000000000E+20
  9
$PLIMMIN
 10
0.0
 20
0.0
  9
$PLIMMAX
 10
12.0
 20
9.0
  9
$UNITMODE
 70
     0
  9
$VISRETAIN
 70
     1
  9
$PLINEGEN
 70
     0
  9
$PSLTSCALE
 70
     1
  9
$TREEDEPTH
 70
  3020
  9
$CMLSTYLE
  2
Standard
  9
$CMLJUST
 70
     0
  9
$CMLSCALE
 40
1.0
  9
$PROXYGRAPHICS
 70
     1
  9
$MEASUREMENT
 70
     0
  9
$CELWEIGHT
370
    -1
  9
$ENDCAPS
280
     0
  9
$JOINSTYLE
280
     0
  9
$LWDISPLAY
290
     0
  9
$INSUNITS
 70
     5
  9
$HYPERLINKBASE
  1

  9
$STYLESHEET
  1

  9
$XEDIT
290
     1
  9
$CEPSNTYPE
380
     0
  9
$PSTYLEMODE
290
     1
  9
$FINGERPRINTGUID
  2
{2E6E0775-B9E6-B246-999F-1EA10C9DA0FC}
  9
$VERSIONGUID
  2
{ED22EF14-728D-9845-81EB-BEEB8D40D8C3}
  9
$EXTNAMES
290
     1
  9
$PSVPSCALE
 40
0.0
  9
$OLESTARTUP
290
     0
  9
$SORTENTS
280
   127
  9
$INDEXCTL
280
     0
  9
$HIDETEXT
280
     1
  9
$XCLIPFRAME
280
     2
  9
$HALOGAP
280
     0
  9
$OBSCOLOR
 70
   257
  9
$OBSLTYPE
280
     0
  9
$INTERSECTIONDISPLAY
280
     0
  9
$INTERSECTIONCOLOR
 70
   257
  9
$DIMASSOC
280
     2
  9
$PROJECTNAME
  1

  9
$CAMERADISPLAY
290
     0
  9
$LENSLENGTH
 40
50.0
  9
$CAMERAHEIGHT
 40
0.0
  9
$STEPSPERSEC
 40
2.0
  9
$STEPSIZE
 40
6.0
  9
$3DDWFPREC
 40
2.0
  9
$PSOLWIDTH
 40
0.25
  9
$PSOLHEIGHT
 40
4.0
  9
$LOFTANG1
 40
1.570796326794896
  9
$LOFTANG2
 40
1.570796326794896
  9
$LOFTMAG1
 40
0.0
  9
$LOFTMAG2
 40
0.0
  9
$LOFTPARAM
 70
     7
  9
$LOFTNORMALS
280
     1
  9
$LATITUDE
 40
37.795
  9
$LONGITUDE
 40
-122.394
  9
$NORTHDIRECTION
 40
0.0
  9
$TIMEZONE
 70
 -8000
  9
$LIGHTGLYPHDISPLAY
280
     1
  9
$TILEMODELIGHTSYNCH
280
     1
  9
$CMATERIAL
347
11
  9
$SOLIDHIST
280
     0
  9
$SHOWHIST
280
     1
  9
$DWFFRAME
280
     2
  9
$DGNFRAME
280
     0
  9
$REALWORLDSCALE
290
     1
  9
$INTERFERECOLOR
 62
     1
  9
$INTERFEREOBJVS
345
33
  9
$INTERFEREVPVS
346
30
  9
$CSHADOW
280
     0
  9
$SHADOWPLANELOCATION
 40
0.0
  0
ENDSEC
  0
SECTION
  2
CLASSES
  0
CLASS
  1
ACDBDICTIONARYWDFLT
  2
AcDbDictionaryWithDefault
  3
ObjectDBX Classes
 90
        0
 91
        1
280
     0
281
     0
  0
CLASS
  1
MATERIAL
  2
AcDbMaterial
  3
ObjectDBX Classes
 90
     1153
 91
        3
280
     0
281
     0
  0
CLASS
  1
VISUALSTYLE
  2
AcDbVisualStyle
  3
ObjectDBX Classes
 90
     4095
 91
       24
280
     0
281
     0
  0
CLASS
  1
SCALE
  2
AcDbScale
  3
ObjectDBX Classes
 90
     1153
 91
       17
280
     0
281
     0
  0
CLASS
  1
TABLESTYLE
  2
AcDbTableStyle
  3
ObjectDBX Classes
 90
     4095
 91
        1
280
     0
281
     0
  0
CLASS
  1
MLEADERSTYLE
  2
AcDbMLeaderStyle
  3
ACDB_MLEADERSTYLE_CLASS
 90
     4095
 91
        1
280
     0
281
     0
  0
CLASS
  1
ACDBSECTIONVIEWSTYLE
  2
AcDbSectionViewStyle
  3
ObjectDBX Classes
 90
     1025
 91
        1
280
     0
281
     0
  0
CLASS
  1
ACDBDETAILVIEWSTYLE
  2
AcDbDetailViewStyle
  3
ObjectDBX Classes
 90
     1025
 91
        1
280
     0
281
     0
  0
CLASS
  1
DICTIONARYVAR
  2
AcDbDictionaryVar
  3
ObjectDBX Classes
 90
        0
 91
        5
280
     0
281
     0
  0
CLASS
  1
CELLSTYLEMAP
  2
AcDbCellStyleMap
  3
ObjectDBX Classes
 90
     1152
 91
        1
280
     0
281
     0
  0
ENDSEC
  0
SECTION
  2
TABLES
  0
TABLE
  2
VPORT
  5
8
330
0
100
AcDbSymbolTable
 70
     1
1001
ACAD
1000
DbSaveVer
1071
      102
  0
VPORT
  5
57
330
8
100
AcDbSymbolTableRecord
100
AcDbViewportTableRecord
  2
*Active
 70
     0
 10
0.0
 20
0.0
 11
1.0
 21
1.0
 12
500.0
 22
500.0
 13
0.0
 23
0.0
 14
1.0
 24
1.0
 15
0.0
 25
0.0
 16
0.0
 26
0.0
 36
1.0
 17
0.0
 27
0.0
 37
0.0
 40
12.0
 41
1.0
 42
50.0
 43
0.0
 44
0.0
 50
0.0
 51
0.0
 71
     0
 72
   100
 73
     1
 74
     0
 75
     1
 76
     0
 77
     0
 78
     0
281
     0
 65
     1
110
0.0
120
0.0
130
0.0
111
1.0
121
0.0
131
0.0
112
0.0
122
1.0
132
0.0
 79
     0
146
0.0
 60
     3
 61
     5
292
     1
282
     1
141
0.0
142
0.0
 63
   250
421
  3355443
  0
ENDTAB
  0
TABLE
  2
LTYPE
  5
5
330
0
100
AcDbSymbolTable
 70
     1
  0
LTYPE
  5
5B
330
5
100
AcDbSymbolTableRecord
100
AcDbLinetypeTableRecord
  2
ByBlock
 70
     0
  3

 72
    65
 73
     0
 40
0.0
  0
LTYPE
  5
5C
330
5
100
AcDbSymbolTableRecord
100
AcDbLinetypeTableRecord
  2
ByLayer
 70
     0
  3

 72
    65
 73
     0
 40
0.0
  0
LTYPE
  5
5D
330
5
100
AcDbSymbolTableRecord
100
AcDbLinetypeTableRecord
  2
Continuous
 70
     0
  3
Solid line
 72
    65
 73
     0
 40
0.0
  0
ENDTAB
  0
TABLE
  2
LAYER
  5
2
330
0
100
AcDbSymbolTable
 70
     4
  0
LAYER
  5
54
330
2
100
AcDbSymbolTableRecord
100
AcDbLayerTableRecord
  2
0
 70
     0
 62
     7
  6
Continuous
370
    -3
390
F
347
21
348
0
  0
LAYER
  5
7A
330
2
100
AcDbSymbolTableRecord
100
AcDbLayerTableRecord
  2
wc rolletjes construction kit v13_Sketch1
 70
     0
 62
     7
  6
Continuous
370
    -3
390
F
347
21
348
0
1001
NFusion_SketchTransform
1000
1.000000;0.000000;0.000000;0.000000;0.000000;0.000000;1.000000;0.000000;0.000000;-1.000000;0.000000;0.000000;0.000000;0.000000;0.000000;1.000000
  0
LAYER
  5
9F
330
2
100
AcDbSymbolTableRecord
100
AcDbLayerTableRecord
  2
wc rolletjes construction kit v13_Sketch2
 70
     0
 62
     7
  6
Continuous
370
    -3
390
F
347
21
348
0
1001
NFusion_SketchTransform
1000
-1.000000;0.000000;0.000000;0.000000;0.000000;0.000000;1.000000;0.000000;0.000000;1.000000;0.000000;0.000000;0.000000;0.000000;0.000000;1.000000
  0
LAYER
  5
16D
330
2
100
AcDbSymbolTableRecord
100
AcDbLayerTableRecord
  2
wc rolletjes construction kit v13_Sketch3
 70
     0
 62
     7
  6
Continuous
370
    -3
390
F
347
21
348
0
1001
NFusion_SketchTransform
1000
1.000000;0.000000;0.000000;0.000000;0.000000;0.000000;1.000000;0.000000;0.000000;-1.000000;0.000000;0.000000;0.000000;0.000000;0.000000;1.000000
  0
ENDTAB
  0
TABLE
  2
STYLE
  5
3
330
0
100
AcDbSymbolTable
 70
     2
  0
STYLE
  5
55
330
3
100
AcDbSymbolTableRecord
100
AcDbTextStyleTableRecord
  2
Standard
 70
     0
 40
0.0
 41
1.0
 50
0.0
 71
     0
 42
0.2
  3
txt
  4

  0
STYLE
  5
5A
330
3
100
AcDbSymbolTableRecord
100
AcDbTextStyleTableRecord
  2
Annotative
 70
     0
 40
0.0
 41
1.0
 50
0.0
 71
     0
 42
0.2
  3
txt
  4

1001
AcadAnnotative
1000
AnnotativeData
1002
{
1070
     1
1070
     1
1002
}
  0
ENDTAB
  0
TABLE
  2
VIEW
  5
6
330
0
100
AcDbSymbolTable
 70
     0
  0
ENDTAB
  0
TABLE
  2
UCS
  5
7
330
0
100
AcDbSymbolTable
 70
     0
  0
ENDTAB
  0
TABLE
  2
APPID
  5
9
330
0
100
AcDbSymbolTable
 70
     4
  0
APPID
  5
56
330
9
100
AcDbSymbolTableRecord
100
AcDbRegAppTableRecord
  2
ACAD
 70
     0
  0
APPID
  5
5E
330
9
100
AcDbSymbolTableRecord
100
AcDbRegAppTableRecord
  2
AcadAnnotative
 70
     0
  0
APPID
  5
78
330
9
100
AcDbSymbolTableRecord
100
AcDbRegAppTableRecord
  2
EDIT_IN_FUSION_ACAD_ADDIN
 70
     0
  0
APPID
  5
79
330
9
100
AcDbSymbolTableRecord
100
AcDbRegAppTableRecord
  2
NFusion_SketchTransform
 70
     0
  0
ENDTAB
  0
TABLE
  2
DIMSTYLE
  5
A
330
0
100
AcDbSymbolTable
 70
     2
100
AcDbDimStyleTable
 71
     0
  0
DIMSTYLE
105
58
330
A
100
AcDbSymbolTableRecord
100
AcDbDimStyleTableRecord
  2
Standard
 70
     0
340
55
  0
DIMSTYLE
105
59
330
A
100
AcDbSymbolTableRecord
100
AcDbDimStyleTableRecord
  2
Annotative
 70
     0
340
55
1001
AcadAnnotative
1000
AnnotativeData
1002
{
1070
     1
1070
     1
1002
}
  0
ENDTAB
  0
TABLE
  2
BLOCK_RECORD
  5
1
330
0
100
AcDbSymbolTable
 70
     1
  0
BLOCK_RECORD
  5
70
330
1
100
AcDbSymbolTableRecord
100
AcDbBlockTableRecord
  2
*Model_Space
340
73
 70
     0
280
     1
281
     0
  0
BLOCK_RECORD
  5
6C
330
1
100
AcDbSymbolTableRecord
100
AcDbBlockTableRecord
  2
*Paper_Space
340
6F
 70
     0
280
     1
281
     0
  0
BLOCK_RECORD
  5
74
330
1
100
AcDbSymbolTableRecord
100
AcDbBlockTableRecord
  2
*Paper_Space0
340
77
 70
     0
280
     1
281
     0
  0
ENDTAB
  0
ENDSEC
  0
SECTION
  2
BLOCKS
  0
BLOCK
  5
71
330
70
100
AcDbEntity
  8
0
100
AcDbBlockBegin
  2
*Model_Space
 70
     0
 10
0.0
 20
0.0
 30
0.0
  3
*Model_Space
  1

  0
ENDBLK
  5
72
330
70
100
AcDbEntity
  8
0
100
AcDbBlockEnd
  0
BLOCK
  5
6D
330
6C
100
AcDbEntity
 67
     1
  8
0
100
AcDbBlockBegin
  2
*Paper_Space
 70
     0
 10
0.0
 20
0.0
 30
0.0
  3
*Paper_Space
  1

  0
ENDBLK
  5
6E
330
6C
100
AcDbEntity
 67
     1
  8
0
100
AcDbBlockEnd
  0
BLOCK
  5
75
330
74
100
AcDbEntity
 67
     1
  8
0
100
AcDbBlockBegin
  2
*Paper_Space0
 70
     0
 10
0.0
 20
0.0
 30
0.0
  3
*Paper_Space0
  1

  0
ENDBLK
  5
76
330
74
100
AcDbEntity
 67
     1
  8
0
100
AcDbBlockEnd
  0
ENDSEC
  0
SECTION
  2
ENTITIES
  0
POINT
  5
7B
330
70
100
AcDbEntity
  8
wc rolletjes construction kit v13_Sketch1
100
AcDbPoint
 10
0.0
 20
0.0
 30
0.0
  0
POINT
  5
7C
330
70
100
AcDbEntity
  8
wc rolletjes construction kit v13_Sketch1
100
AcDbPoint
 10
1.069536046771606
 20
0.0
 30
0.3272374354692419
  0
POINT
  5
7D
330
70
100
AcDbEntity
  8
wc rolletjes construction kit v13_Sketch1
100
AcDbPoint
 10
4.06953604677159
 20
0.0
 30
0.3272377487406578
  0
POINT
  5
7E
330
70
100
AcDbEntity
  8
wc rolletjes construction kit v13_Sketch1
100
AcDbPoint
 10
1.069536046771606
 20
0.0
 30
3.327237435469241
  0
LINE
  5
7F
330
70
100
AcDbEntity
  8
wc rolletjes construction kit v13_Sketch1
100
AcDbLine
 10
2.593036026599532
 20
0.0
 30
0.5272377487406579
 11
2.593036026599547
 21
0.0
 31
1.42723795046079
  0
LINE
  5
80
330
70
100
AcDbEntity
  8
wc rolletjes construction kit v13_Sketch1
100
AcDbLine
 10
2.593036026599547
 20
0.0
 30
1.42723795046079
 11
2.546036026599546
 21
0.0
 31
1.42723795046079
  0
LINE
  5
81
330
70
100
AcDbEntity
  8
wc rolletjes construction kit v13_Sketch1
100
AcDbLine
 10
2.546036026599546
 20
0.0
 30
1.42723795046079
 11
2.546036026599546
 21
0.0
 31
0.5272379504607904
  0
LINE
  5
82
330
70
100
AcDbEntity
  8
wc rolletjes construction kit v13_Sketch1
100
AcDbLine
 10
1.169536087115922
 20
0.0
 30
0.3272374758132879
 11
2.346036107287607
 21
0.0
 31
0.3272379504608068
  0
LINE
  5
83
330
70
100
AcDbEntity
  8
wc rolletjes construction kit v13_Sketch1
100
AcDbLine
 10
2.793036026599532
 20
0.0
 30
0.3272377487406578
 11
3.969536046771312
 21
0.0
 31
0.3272377487406578
  0
ARC
  5
84
330
70
100
AcDbEntity
  8
wc rolletjes construction kit v13_Sketch1
100
AcDbCircle
 10
-2.793036026599532
 20
0.5272377487406579
 30
0.0
 40
0.2000000000000001
210
0.0
220
1.0
230
0.0
100
AcDbArc
 50
270.0
 51
0.0
  0
ARC
  5
85
330
70
100
AcDbEntity
  8
wc rolletjes construction kit v13_Sketch1
100
AcDbCircle
 10
-2.346036026599547
 20
0.5272379504607904
 30
0.0
 40
0.1999999999999997
210
0.0
220
1.0
230
0.0
100
AcDbArc
 50
180.0
 51
269.9999768845736
  0
LINE
  5
86
330
70
100
AcDbEntity
  8
wc rolletjes construction kit v13_Sketch1
100
AcDbLine
 10
3.069536046771589
 20
0.0
 30
1.75373759210508
 11
3.969536046771589
 21
0.0
 31
1.75373759210508
  0
LINE
  5
87
330
70
100
AcDbEntity
  8
wc rolletjes construction kit v13_Sketch1
100
AcDbLine
 10
3.86953604677159
 20
0.0
 30
1.80073759210508
 11
3.069536046771589
 21
0.0
 31
1.80073759210508
  0
LINE
  5
88
330
70
100
AcDbEntity
  8
wc rolletjes construction kit v13_Sketch1
100
AcDbLine
 10
3.069536046771589
 20
0.0
 30
1.80073759210508
 11
3.069536046771589
 21
0.0
 31
1.75373759210508
  0
LINE
  5
89
330
70
100
AcDbEntity
  8
wc rolletjes construction kit v13_Sketch1
100
AcDbLine
 10
4.06953604677159
 20
0.0
 30
0.4272377487409355
 11
4.06953604677159
 21
0.0
 31
1.653737592105079
  0
LINE
  5
8A
330
70
100
AcDbEntity
  8
wc rolletjes construction kit v13_Sketch1
100
AcDbLine
 10
4.06953604677159
 20
0.0
 30
2.00073759210508
 11
4.06953604677159
 21
0.0
 31
3.227237435469225
  0
ARC
  5
8B
330
70
100
AcDbEntity
  8
wc rolletjes construction kit v13_Sketch1
100
AcDbCircle
 10
-3.969536046771589
 20
1.653737592105079
 30
0.0
 40
0.100000000000001
210
0.0
220
1.0
230
0.0
100
AcDbArc
 50
90.0
 51
180.0
  0
ARC
  5
8C
330
70
100
AcDbEntity
  8
wc rolletjes construction kit v13_Sketch1
100
AcDbCircle
 10
-3.86953604677159
 20
2.00073759210508
 30
0.0
 40
0.2000000000000002
210
0.0
220
1.0
230
0.0
100
AcDbArc
 50
179.9999999999998
 51
270.0
  0
LINE
  5
8D
330
70
100
AcDbEntity
  8
wc rolletjes construction kit v13_Sketch1
100
AcDbLine
 10
2.546036046771589
 20
0.0
 30
2.327237435469241
 11
2.593036046771589
 21
0.0
 31
2.327237435469241
  0
LINE
  5
8E
330
70
100
AcDbEntity
  8
wc rolletjes construction kit v13_Sketch1
100
AcDbLine
 10
2.593036046771589
 20
0.0
 30
2.327237435469241
 11
2.593036046771589
 21
0.0
 31
3.227237435469239
  0
LINE
  5
8F
330
70
100
AcDbEntity
  8
wc rolletjes construction kit v13_Sketch1
100
AcDbLine
 10
2.546036046771589
 20
0.0
 30
3.227237435469241
 11
2.546036046771589
 21
0.0
 31
2.327237435469241
  0
LINE
  5
90
330
70
100
AcDbEntity
  8
wc rolletjes construction kit v13_Sketch1
100
AcDbLine
 10
3.969536046771573
 20
0.0
 30
3.327237435469241
 11
2.693036046771592
 21
0.0
 31
3.327237435469241
  0
LINE
  5
91
330
70
100
AcDbEntity
  8
wc rolletjes construction kit v13_Sketch1
100
AcDbLine
 10
2.446036046771588
 20
0.0
 30
3.327237435469241
 11
1.169536046771606
 21
0.0
 31
3.327237435469241
  0
ARC
  5
92
330
70
100
AcDbEntity
  8
wc rolletjes construction kit v13_Sketch1
100
AcDbCircle
 10
-2.446036046771588
 20
3.227237435469241
 30
0.0
 40
0.1000000000000005
210
0.0
220
1.0
230
0.0
100
AcDbArc
 50
90.0
 51
180.0
  0
ARC
  5
93
330
70
100
AcDbEntity
  8
wc rolletjes construction kit v13_Sketch1
100
AcDbCircle
 10
-2.693036046771592
 20
3.227237435469239
 30
0.0
 40
0.1000000000000023
210
0.0
220
1.0
230
0.0
100
AcDbArc
 50
359.9999999999997
 51
90.0
  0
LINE
  5
94
330
70
100
AcDbEntity
  8
wc rolletjes construction kit v13_Sketch1
100
AcDbLine
 10
1.169536046771604
 20
0.0
 30
1.850737455641404
 11
2.069536046771606
 21
0.0
 31
1.850737455641404
  0
LINE
  5
95
330
70
100
AcDbEntity
  8
wc rolletjes construction kit v13_Sketch1
100
AcDbLine
 10
2.069536046771606
 20
0.0
 30
1.850737455641404
 11
2.069536046771606
 21
0.0
 31
1.803737455641404
  0
LINE
  5
96
330
70
100
AcDbEntity
  8
wc rolletjes construction kit v13_Sketch1
100
AcDbLine
 10
2.069536046771606
 20
0.0
 30
1.803737455641404
 11
1.169536046771606
 21
0.0
 31
1.803737455641404
  0
LINE
  5
97
330
70
100
AcDbEntity
  8
wc rolletjes construction kit v13_Sketch1
100
AcDbLine
 10
1.069536046771606
 20
0.0
 30
3.227237435469241
 11
1.069536046771606
 21
0.0
 31
1.950737455641402
  0
LINE
  5
98
330
70
100
AcDbEntity
  8
wc rolletjes construction kit v13_Sketch1
100
AcDbLine
 10
1.069536046771606
 20
0.0
 30
1.703737455641404
 11
1.069536046771606
 21
0.0
 31
0.4272374758135658
  0
ARC
  5
99
330
70
100
AcDbEntity
  8
wc rolletjes construction kit v13_Sketch1
100
AcDbCircle
 10
-1.169536046771606
 20
1.703737455641404
 30
0.0
 40
0.1000000000000003
210
0.0
220
1.0
230
0.0
100
AcDbArc
 50
0.0
 51
90.0
  0
ARC
  5
9A
330
70
100
AcDbEntity
  8
wc rolletjes construction kit v13_Sketch1
100
AcDbCircle
 10
-1.169536046771604
 20
1.950737455641402
 30
0.0
 40
0.0999999999999983
210
0.0
220
1.0
230
0.0
100
AcDbArc
 50
270.0
 51
0.0
  0
ARC
  5
9B
330
70
100
AcDbEntity
  8
wc rolletjes construction kit v13_Sketch1
100
AcDbCircle
 10
-1.169536046771892
 20
0.4272374758135658
 30
0.0
 40
0.1000000000002859
210
0.0
220
1.0
230
0.0
100
AcDbArc
 50
269.9999768845736
 51
0.0
  0
ARC
  5
9C
330
70
100
AcDbEntity
  8
wc rolletjes construction kit v13_Sketch1
100
AcDbCircle
 10
-3.969536046771312
 20
0.4272377487409355
 30
0.0
 40
0.1000000000002776
210
0.0
220
1.0
230
0.0
100
AcDbArc
 50
180.0
 51
270.0
  0
ARC
  5
9D
330
70
100
AcDbEntity
  8
wc rolletjes construction kit v13_Sketch1
100
AcDbCircle
 10
-3.969536046771573
 20
3.227237435469225
 30
0.0
 40
0.1000000000000161
210
0.0
220
1.0
230
0.0
100
AcDbArc
 50
90.0
 51
180.0
  0
ARC
  5
9E
330
70
100
AcDbEntity
  8
wc rolletjes construction kit v13_Sketch1
100
AcDbCircle
 10
-1.169536046771606
 20
3.227237435469241
 30
0.0
 40
0.1000000000000005
210
0.0
220
1.0
230
0.0
100
AcDbArc
 50
0.0
 51
90.0
  0
POINT
  5
A0
330
70
100
AcDbEntity
  8
wc rolletjes construction kit v13_Sketch2
100
AcDbPoint
 10
0.0
 20
0.0
 30
0.0
  0
POINT
  5
A1
330
70
100
AcDbEntity
  8
wc rolletjes construction kit v13_Sketch2
100
AcDbPoint
 10
6.254541956962264
 20
0.0
 30
6.03169414060261
  0
POINT
  5
A2
330
70
100
AcDbEntity
  8
wc rolletjes construction kit v13_Sketch2
100
AcDbPoint
 10
9.254541956962265
 20
0.0
 30
6.031694140602607
  0
POINT
  5
A3
330
70
100
AcDbEntity
  8
wc rolletjes construction kit v13_Sketch2
100
AcDbPoint
 10
6.254541956965861
 20
0.0
 30
9.031694140602612
  0
POINT
  5
A4
330
70
100
AcDbEntity
  8
wc rolletjes construction kit v13_Sketch2
100
AcDbPoint
 10
6.029305148868842
 20
0.0
 30
0.6940275887583225
  0
POINT
  5
A5
330
70
100
AcDbEntity
  8
wc rolletjes construction kit v13_Sketch2
100
AcDbPoint
 10
9.029305148868841
 20
0.0
 30
0.6940275887583225
  0
POINT
  5
A6
330
70
100
AcDbEntity
  8
wc rolletjes construction kit v13_Sketch2
100
AcDbPoint
 10
6.029305148868842
 20
0.0
 30
2.194027588758322
  0
POINT
  5
A7
330
70
100
AcDbEntity
  8
wc rolletjes construction kit v13_Sketch2
100
AcDbPoint
 10
12.79278115286289
 20
0.0
 30
0.2561517604045093
  0
POINT
  5
A8
330
70
100
AcDbEntity
  8
wc rolletjes construction kit v13_Sketch2
100
AcDbPoint
 10
15.79278115286289
 20
0.0
 30
0.2561517604045093
  0
POINT
  5
A9
330
70
100
AcDbEntity
  8
wc rolletjes construction kit v13_Sketch2
100
AcDbPoint
 10
12.79278115286289
 20
0.0
 30
3.256151760404508
  0
POINT
  5
AA
330
70
100
AcDbEntity
  8
wc rolletjes construction kit v13_Sketch2
100
AcDbPoint
 10
15.30318349682689
 20
0.0
 30
33.51524613574957
  0
POINT
  5
AB
330
70
100
AcDbEntity
  8
wc rolletjes construction kit v13_Sketch2
100
AcDbPoint
 10
15.30318349682689
 20
0.0
 30
33.58880445914618
  0
POINT
  5
AC
330
70
100
AcDbEntity
  8
wc rolletjes construction kit v13_Sketch2
100
AcDbPoint
 10
15.30318349682689
 20
0.0
 30
33.51524613574957
  0
POINT
  5
AD
330
70
100
AcDbEntity
  8
wc rolletjes construction kit v13_Sketch2
100
AcDbPoint
 10
15.30318349682687
 20
0.0
 30
25.51524613574958
  0
POINT
  5
AE
330
70
100
AcDbEntity
  8
wc rolletjes construction kit v13_Sketch2
100
AcDbPoint
 10
12.30318349682685
 20
0.0
 30
29.58880445914619
  0
POINT
  5
AF
330
70
100
AcDbEntity
  8
wc rolletjes construction kit v13_Sketch2
100
AcDbPoint
 10
12.30318349682685
 20
0.0
 30
29.50552104237835
  0
POINT
  5
B0
330
70
100
AcDbEntity
  8
wc rolletjes construction kit v13_Sketch2
100
AcDbPoint
 10
12.30318349682685
 20
0.0
 30
21.50552104237835
  0
POINT
  5
B1
330
70
100
AcDbEntity
  8
wc rolletjes construction kit v13_Sketch2
100
AcDbPoint
 10
12.30318349682685
 20
0.0
 30
29.50552104237835
  0
POINT
  5
B2
330
70
100
AcDbEntity
  8
wc rolletjes construction kit v13_Sketch2
100
AcDbPoint
 10
12.30318349682685
 20
0.0
 30
21.58948023622021
  0
POINT
  5
B3
330
70
100
AcDbEntity
  8
wc rolletjes construction kit v13_Sketch2
100
AcDbPoint
 10
15.30318349682687
 20
0.0
 30
25.43117477745207
  0
POINT
  5
B4
330
70
100
AcDbEntity
  8
wc rolletjes construction kit v13_Sketch2
100
AcDbPoint
 10
15.30318349682686
 20
0.0
 30
17.43117477745207
  0
POINT
  5
B5
330
70
100
AcDbEntity
  8
wc rolletjes construction kit v13_Sketch2
100
AcDbPoint
 10
12.30318349682685
 20
0.0
 30
13.5894802362202
  0
POINT
  5
B6
330
70
100
AcDbEntity
  8
wc rolletjes construction kit v13_Sketch2
100
AcDbPoint
 10
23.80725480986491
 20
0.0
 30
3.516093167114015
  0
POINT
  5
B7
330
70
100
AcDbEntity
  8
wc rolletjes construction kit v13_Sketch2
100
AcDbPoint
 10
20.80725480986515
 20
0.0
 30
3.516091956793111
  0
POINT
  5
B8
330
70
100
AcDbEntity
  8
wc rolletjes construction kit v13_Sketch2
100
AcDbPoint
 10
23.80725480986479
 20
0.0
 30
0.5160931671140387
  0
POINT
  5
B9
330
70
100
AcDbEntity
  8
wc rolletjes construction kit v13_Sketch2
100
AcDbPoint
 10
20.24314491617104
 20
0.0
 30
7.090871996337472
  0
POINT
  5
BA
330
70
100
AcDbEntity
  8
wc rolletjes construction kit v13_Sketch2
100
AcDbPoint
 10
23.24314491617106
 20
0.0
 30
7.090871996334322
  0
POINT
  5
BB
330
70
100
AcDbEntity
  8
wc rolletjes construction kit v13_Sketch2
100
AcDbPoint
 10
20.24314491617128
 20
0.0
 30
10.09087199633742
  0
POINT
  5
BC
330
70
100
AcDbEntity
  8
wc rolletjes construction kit v13_Sketch2
100
AcDbPoint
 10
21.68614504858642
 20
0.0
 30
7.090871996335956
  0
LINE
  5
BD
330
70
100
AcDbEntity
  8
wc rolletjes construction kit v13_Sketch2
100
AcDbLine
 10
9.154541956957819
 20
0.0
 30
9.031694140604022
 11
6.354541956961475
 21
0.0
 31
9.031694140604024
  0
ARC
  5
BE
330
70
100
AcDbEntity
  8
wc rolletjes construction kit v13_Sketch2
100
AcDbCircle
 10
-6.354541956962726
 20
6.131694140603195
 30
0.0
 40
0.1000000000005849
210
0.0
220
1.0
230
0.0
100
AcDbArc
 50
269.9999999999964
 51
359.9999419509031
  0
ARC
  5
BF
330
70
100
AcDbEntity
  8
wc rolletjes construction kit v13_Sketch2
100
AcDbCircle
 10
-9.154541956959327
 20
6.131694140605659
 30
0.0
 40
0.1000000000030603
210
0.0
220
1.0
230
0.0
100
AcDbArc
 50
179.9999999998539
 51
269.999715897408
  0
ARC
  5
C0
330
70
100
AcDbEntity
  8
wc rolletjes construction kit v13_Sketch2
100
AcDbCircle
 10
-9.154541956957817
 20
8.931694140604083
 30
0.0
 40
0.0999999999999393
210
0.0
220
1.0
230
0.0
100
AcDbArc
 50
90.00000000000103
 51
179.9997184580049
  0
ARC
  5
C1
330
70
100
AcDbEntity
  8
wc rolletjes construction kit v13_Sketch2
100
AcDbCircle
 10
-6.354541956961774
 20
8.931694140608284
 30
0.0
 40
0.0999999999960828
210
0.0
220
1.0
230
0.0
100
AcDbArc
 50
359.9999999999013
 51
89.99999999982851
  0
LINE
  5
C2
330
70
100
AcDbEntity
  8
wc rolletjes construction kit v13_Sketch2
100
AcDbLine
 10
7.811542204886015
 20
0.0
 30
6.231694140602925
 11
7.811542204886015
 21
0.0
 31
7.131694140603186
  0
LINE
  5
C3
330
70
100
AcDbEntity
  8
wc rolletjes construction kit v13_Sketch2
100
AcDbLine
 10
7.811542204886015
 20
0.0
 30
7.131694140603186
 11
7.697542204886015
 21
0.0
 31
7.131694140603186
  0
LINE
  5
C4
330
70
100
AcDbEntity
  8
wc rolletjes construction kit v13_Sketch2
100
AcDbLine
 10
7.697542204886015
 20
0.0
 30
7.131694140603186
 11
7.697542204888609
 21
0.0
 31
6.231694140603186
  0
LINE
  5
C5
330
70
100
AcDbEntity
  8
wc rolletjes construction kit v13_Sketch2
100
AcDbLine
 10
6.354541956962732
 20
0.0
 30
6.03169414060261
 11
7.497542204888609
 21
0.0
 31
6.031694140602609
  0
LINE
  5
C6
330
70
100
AcDbEntity
  8
wc rolletjes construction kit v13_Sketch2
100
AcDbLine
 10
8.011542204886016
 20
0.0
 30
6.031694140602925
 11
9.154542452811893
 21
0.0
 31
6.031694140603875
  0
ARC
  5
C7
330
70
100
AcDbEntity
  8
wc rolletjes construction kit v13_Sketch2
100
AcDbCircle
 10
-7.497542204888609
 20
6.231694140602609
 30
0.0
 40
0.2000000000000002
210
0.0
220
1.0
230
0.0
100
AcDbArc
 50
179.9999999998348
 51
270.0
  0
ARC
  5
C8
330
70
100
AcDbEntity
  8
wc rolletjes construction kit v13_Sketch2
100
AcDbCircle
 10
-8.011542204886016
 20
6.231694140602925
 30
0.0
 40
0.2000000000000002
210
0.0
220
1.0
230
0.0
100
AcDbArc
 50
270.0
 51
0.0
  0
LINE
  5
C9
330
70
100
AcDbEntity
  8
wc rolletjes construction kit v13_Sketch2
100
AcDbLine
 10
8.1545419569547
 20
0.0
 30
7.508194386293756
 11
9.054541956958292
 21
0.0
 31
7.508194386295688
  0
LINE
  5
CA
330
70
100
AcDbEntity
  8
wc rolletjes construction kit v13_Sketch2
100
AcDbLine
 10
9.0545419569547
 20
0.0
 30
7.555194386293929
 11
8.1545419569547
 21
0.0
 31
7.555194386293757
  0
LINE
  5
CB
330
70
100
AcDbEntity
  8
wc rolletjes construction kit v13_Sketch2
100
AcDbLine
 10
8.1545419569547
 20
0.0
 30
7.555194386293757
 11
8.1545419569547
 21
0.0
 31
7.508194386293756
  0
LINE
  5
CC
330
70
100
AcDbEntity
  8
wc rolletjes construction kit v13_Sketch2
100
AcDbLine
 10
9.254541956962388
 20
0.0
 30
6.131694140605914
 11
9.25454195696045
 21
0.0
 31
7.308194386294339
  0
LINE
  5
CD
330
70
100
AcDbEntity
  8
wc rolletjes construction kit v13_Sketch2
100
AcDbLine
 10
9.254541956959348
 20
0.0
 30
7.755194386299136
 11
9.25454195695778
 21
0.0
 31
8.931694631987562
  0
ARC
  5
CE
330
70
100
AcDbEntity
  8
wc rolletjes construction kit v13_Sketch2
100
AcDbCircle
 10
-9.054541956958722
 20
7.308194386293993
 30
0.0
 40
0.2000000000016948
210
0.0
220
1.0
230
0.0
100
AcDbArc
 50
89.99999999987684
 51
179.9999999999007
  0
ARC
  5
CF
330
70
100
AcDbEntity
  8
wc rolletjes construction kit v13_Sketch2
100
AcDbCircle
 10
-9.054541956954718
 20
7.755194386298609
 30
0.0
 40
0.2000000000046302
210
0.0
220
1.0
230
0.0
100
AcDbArc
 50
179.9999999998491
 51
270.0000000000051
  0
LINE
  5
D0
330
70
100
AcDbEntity
  8
wc rolletjes construction kit v13_Sketch2
100
AcDbLine
 10
6.454541956962003
 20
0.0
 30
7.50819408995025
 11
7.354541956962004
 21
0.0
 31
7.508194089951063
  0
LINE
  5
D1
330
70
100
AcDbEntity
  8
wc rolletjes construction kit v13_Sketch2
100
AcDbLine
 10
7.354541956962004
 20
0.0
 30
7.508194089951063
 11
7.354541956962004
 21
0.0
 31
7.555194089951063
  0
LINE
  5
D2
330
70
100
AcDbEntity
  8
wc rolletjes construction kit v13_Sketch2
100
AcDbLine
 10
7.354541956962004
 20
0.0
 30
7.555194089951063
 11
6.454541956964092
 21
0.0
 31
7.5551940899515
  0
LINE
  5
D3
330
70
100
AcDbEntity
  8
wc rolletjes construction kit v13_Sketch2
100
AcDbLine
 10
6.254541956965692
 20
0.0
 30
8.931694140608112
 11
6.254541956964328
 21
0.0
 31
7.755194089951312
  0
LINE
  5
D4
330
70
100
AcDbEntity
  8
wc rolletjes construction kit v13_Sketch2
100
AcDbLine
 10
6.254541956963806
 20
0.0
 30
7.308194089945206
 11
6.254541956958777
 21
0.0
 31
6.131694039288408
  0
ARC
  5
D5
330
70
100
AcDbEntity
  8
wc rolletjes construction kit v13_Sketch2
100
AcDbCircle
 10
-6.454541956962352
 20
7.3081940899508
 30
0.0
 40
0.1999999999985462
210
0.0
220
1.0
230
0.0
100
AcDbArc
 50
359.9999999983972
 51
89.9999999999
  0
ARC
  5
D6
330
70
100
AcDbEntity
  8
wc rolletjes construction kit v13_Sketch2
100
AcDbCircle
 10
-6.454541956964606
 20
7.755194089951507
 30
0.0
 40
0.2000000000000073
210
0.0
220
1.0
230
0.0
100
AcDbArc
 50
270.0000000001473
 51
359.999999999944
  0
LINE
  5
D7
330
70
100
AcDbEntity
  8
wc rolletjes construction kit v13_Sketch2
100
AcDbLine
 10
9.029305148868841
 20
0.0
 30
0.7940275887583204
 11
9.029305148868841
 21
0.0
 31
2.094027588758316
  0
LINE
  5
D8
330
70
100
AcDbEntity
  8
wc rolletjes construction kit v13_Sketch2
100
AcDbLine
 10
8.929305148868836
 20
0.0
 30
2.194027588758322
 11
6.129305148868843
 21
0.0
 31
2.194027588758322
  0
LINE
  5
D9
330
70
100
AcDbEntity
  8
wc rolletjes construction kit v13_Sketch2
100
AcDbLine
 10
6.029305148868842
 20
0.0
 30
2.094027588758321
 11
6.029305148868842
 21
0.0
 31
0.7940275887583215
  0
ARC
  5
DA
330
70
100
AcDbEntity
  8
wc rolletjes construction kit v13_Sketch2
100
AcDbCircle
 10
-6.129305148868841
 20
0.7940275887583214
 30
0.0
 40
0.0999999999999989
210
0.0
220
1.0
230
0.0
100
AcDbArc
 50
270.0
 51
0.0
  0
ARC
  5
DB
330
70
100
AcDbEntity
  8
wc rolletjes construction kit v13_Sketch2
100
AcDbCircle
 10
-8.929305148868843
 20
0.7940275887583204
 30
0.0
 40
0.0999999999999979
210
0.0
220
1.0
230
0.0
100
AcDbArc
 50
180.0
 51
270.000013071578
  0
ARC
  5
DC
330
70
100
AcDbEntity
  8
wc rolletjes construction kit v13_Sketch2
100
AcDbCircle
 10
-6.129305148868843
 20
2.094027588758321
 30
0.0
 40
0.1000000000000005
210
0.0
220
1.0
230
0.0
100
AcDbArc
 50
0.0
 51
90.0
  0
ARC
  5
DD
330
70
100
AcDbEntity
  8
wc rolletjes construction kit v13_Sketch2
100
AcDbCircle
 10
-8.929305148868836
 20
2.094027588758316
 30
0.0
 40
0.1000000000000054
210
0.0
220
1.0
230
0.0
100
AcDbArc
 50
90.0
 51
180.0
  0
LINE
  5
DE
330
70
100
AcDbEntity
  8
wc rolletjes construction kit v13_Sketch2
100
AcDbLine
 10
7.586305137461738
 20
0.0
 30
0.8940275887583236
 11
7.586305137461738
 21
0.0
 31
1.794027588758322
  0
LINE
  5
DF
330
70
100
AcDbEntity
  8
wc rolletjes construction kit v13_Sketch2
100
AcDbLine
 10
7.586305137461738
 20
0.0
 30
1.794027588758322
 11
7.472305137461738
 21
0.0
 31
1.794027588758322
  0
LINE
  5
E0
330
70
100
AcDbEntity
  8
wc rolletjes construction kit v13_Sketch2
100
AcDbLine
 10
7.472305137461738
 20
0.0
 30
1.794027588758322
 11
7.472305137461738
 21
0.0
 31
0.8940275887583224
  0
LINE
  5
E1
330
70
100
AcDbEntity
  8
wc rolletjes construction kit v13_Sketch2
100
AcDbLine
 10
6.129305148868841
 20
0.0
 30
0.6940275887583225
 11
7.272305137461738
 21
0.0
 31
0.6940275887583225
  0
LINE
  5
E2
330
70
100
AcDbEntity
  8
wc rolletjes construction kit v13_Sketch2
100
AcDbLine
 10
7.78630513746174
 20
0.0
 30
0.6940275887583236
 11
8.929305126054636
 21
0.0
 31
0.6940275887583235
  0
ARC
  5
E3
330
70
100
AcDbEntity
  8
wc rolletjes construction kit v13_Sketch2
100
AcDbCircle
 10
-7.272305137461738
 20
0.8940275887583224
 30
0.0
 40
0.2000000000000002
210
0.0
220
1.0
230
0.0
100
AcDbArc
 50
180.0
 51
270.0
  0
ARC
  5
E4
330
70
100
AcDbEntity
  8
wc rolletjes construction kit v13_Sketch2
100
AcDbCircle
 10
-7.786305137461738
 20
0.8940275887583236
 30
0.0
 40
0.2000000000000001
210
0.0
220
1.0
230
0.0
100
AcDbArc
 50
269.9999999999995
 51
0.0
  0
LINE
  5
E5
330
70
100
AcDbEntity
  8
wc rolletjes construction kit v13_Sketch2
100
AcDbLine
 10
12.8927811528629
 20
0.0
 30
0.2561517604045093
 11
15.69278115286289
 21
0.0
 31
0.2561517604045093
  0
LINE
  5
E6
330
70
100
AcDbEntity
  8
wc rolletjes construction kit v13_Sketch2
100
AcDbLine
 10
15.69278115286289
 20
0.0
 30
3.256151760404508
 11
12.89278115286305
 21
0.0
 31
3.256151760404509
  0
ARC
  5
E7
330
70
100
AcDbEntity
  8
wc rolletjes construction kit v13_Sketch2
100
AcDbCircle
 10
-12.8927811528629
 20
0.356151760404515
 30
0.0
 40
0.1000000000000056
210
0.0
220
1.0
230
0.0
100
AcDbArc
 50
270.0
 51
359.9999974775676
  0
ARC
  5
E8
330
70
100
AcDbEntity
  8
wc rolletjes construction kit v13_Sketch2
100
AcDbCircle
 10
-15.69278115286289
 20
0.3561517604045072
 30
0.0
 40
0.0999999999999979
210
0.0
220
1.0
230
0.0
100
AcDbArc
 50
180.0
 51
270.0
  0
ARC
  5
E9
330
70
100
AcDbEntity
  8
wc rolletjes construction kit v13_Sketch2
100
AcDbCircle
 10
-12.89278115286305
 20
3.156151760404347
 30
0.0
 40
0.1000000000001613
210
0.0
220
1.0
230
0.0
100
AcDbArc
 50
0.0
 51
90.0
  0
ARC
  5
EA
330
70
100
AcDbEntity
  8
wc rolletjes construction kit v13_Sketch2
100
AcDbCircle
 10
-15.69278115286289
 20
3.156151760404509
 30
0.0
 40
0.0999999999999988
210
0.0
220
1.0
230
0.0
100
AcDbArc
 50
90.0
 51
180.0000031132938
  0
LINE
  5
EB
330
70
100
AcDbEntity
  8
wc rolletjes construction kit v13_Sketch2
100
AcDbLine
 10
14.69278115286289
 20
0.0
 30
1.732651757687653
 11
15.59278115286289
 21
0.0
 31
1.732651757687653
  0
LINE
  5
EC
330
70
100
AcDbEntity
  8
wc rolletjes construction kit v13_Sketch2
100
AcDbLine
 10
15.59278115286289
 20
0.0
 30
1.779651757687642
 11
14.69278115286289
 21
0.0
 31
1.779651757687653
  0
LINE
  5
ED
330
70
100
AcDbEntity
  8
wc rolletjes construction kit v13_Sketch2
100
AcDbLine
 10
14.69278115286289
 20
0.0
 30
1.779651757687653
 11
14.69278115286289
 21
0.0
 31
1.732651757687653
  0
LINE
  5
EE
330
70
100
AcDbEntity
  8
wc rolletjes construction kit v13_Sketch2
100
AcDbLine
 10
15.79278115286289
 20
0.0
 30
0.3561517604045072
 11
15.79278115286289
 21
0.0
 31
1.532651757687653
  0
LINE
  5
EF
330
70
100
AcDbEntity
  8
wc rolletjes construction kit v13_Sketch2
100
AcDbLine
 10
15.79278115286289
 20
0.0
 30
1.979651757687641
 11
15.79278115286289
 21
0.0
 31
3.156151754970787
  0
ARC
  5
F0
330
70
100
AcDbEntity
  8
wc rolletjes construction kit v13_Sketch2
100
AcDbCircle
 10
-15.59278115286289
 20
1.532651757687653
 30
0.0
 40
0.2
210
0.0
220
1.0
230
0.0
100
AcDbArc
 50
90.0
 51
180.0
  0
ARC
  5
F1
330
70
100
AcDbEntity
  8
wc rolletjes construction kit v13_Sketch2
100
AcDbCircle
 10
-15.59278115286289
 20
1.979651757687641
 30
0.0
 40
0.1999999999999993
210
0.0
220
1.0
230
0.0
100
AcDbArc
 50
180.0
 51
270.0
  0
LINE
  5
F2
330
70
100
AcDbEntity
  8
wc rolletjes construction kit v13_Sketch2
100
AcDbLine
 10
12.99278115286286
 20
0.0
 30
1.732651758203194
 11
13.89278115286289
 21
0.0
 31
1.732651758203192
  0
LINE
  5
F3
330
70
100
AcDbEntity
  8
wc rolletjes construction kit v13_Sketch2
100
AcDbLine
 10
13.89278115286289
 20
0.0
 30
1.732651758203192
 11
13.89278115286289
 21
0.0
 31
1.779651758203192
  0
LINE
  5
F4
330
70
100
AcDbEntity
  8
wc rolletjes construction kit v13_Sketch2
100
AcDbLine
 10
13.89278115286289
 20
0.0
 30
1.779651758203192
 11
12.99278115286289
 21
0.0
 31
1.779651758203192
  0
LINE
  5
F5
330
70
100
AcDbEntity
  8
wc rolletjes construction kit v13_Sketch2
100
AcDbLine
 10
12.79278115286289
 20
0.0
 30
3.156151760404347
 11
12.79278115286289
 21
0.0
 31
1.979651758203192
  0
LINE
  5
F6
330
70
100
AcDbEntity
  8
wc rolletjes construction kit v13_Sketch2
100
AcDbLine
 10
12.79278115286286
 20
0.0
 30
1.532651758203194
 11
12.79278115286276
 21
0.0
 31
0.35615175600204
  0
ARC
  5
F7
330
70
100
AcDbEntity
  8
wc rolletjes construction kit v13_Sketch2
100
AcDbCircle
 10
-12.99278115286286
 20
1.532651758203194
 30
0.0
 40
0.1999999999999993
210
0.0
220
1.0
230
0.0
100
AcDbArc
 50
0.0
 51
90.0
  0
ARC
  5
F8
330
70
100
AcDbEntity
  8
wc rolletjes construction kit v13_Sketch2
100
AcDbCircle
 10
-12.99278115286289
 20
1.979651758203192
 30
0.0
 40
0.2
210
0.0
220
1.0
230
0.0
100
AcDbArc
 50
270.0
 51
0.0
  0
LINE
  5
F9
330
70
100
AcDbEntity
  8
wc rolletjes construction kit v13_Sketch2
100
AcDbLine
 10
2.252808080602303
 20
0.0
 30
5.717468089719464
 11
2.252808080602303
 21
0.0
 31
6.617468089719464
  0
LINE
  5
FA
330
70
100
AcDbEntity
  8
wc rolletjes construction kit v13_Sketch2
100
AcDbLine
 10
2.252808080602303
 20
0.0
 30
6.617468089719464
 11
2.205808080602303
 21
0.0
 31
6.617468089719464
  0
LINE
  5
FB
330
70
100
AcDbEntity
  8
wc rolletjes construction kit v13_Sketch2
100
AcDbLine
 10
2.205808080602303
 20
0.0
 30
6.617468089719464
 11
2.205808080602305
 21
0.0
 31
5.722967493213516
  0
ARC
  5
FC
330
70
100
AcDbEntity
  8
wc rolletjes construction kit v13_Sketch2
100
AcDbCircle
 10
-2.005808080602052
 20
5.722967493213516
 30
0.0
 40
0.2000000000002529
210
0.0
220
1.0
230
0.0
100
AcDbArc
 50
180.0
 51
280.605276008793
  0
ARC
  5
FD
330
70
100
AcDbEntity
  8
wc rolletjes construction kit v13_Sketch2
100
AcDbCircle
 10
-2.452808080602303
 20
5.717468089719464
 30
0.0
 40
0.2000000000287887
210
0.0
220
1.0
230
0.0
100
AcDbArc
 50
260.8034178654896
 51
0.0
  0
ARC
  5
FE
330
70
100
AcDbEntity
  8
wc rolletjes construction kit v13_Sketch2
100
AcDbCircle
 10
-1.029825086388489
 20
7.462495137698459
 30
0.0
 40
0.2000000000270697
210
0.0
220
1.0
230
0.0
100
AcDbArc
 50
20.8034178656992
 51
119.9999999999999
  0
LINE
  5
FF
330
70
100
AcDbEntity
  8
wc rolletjes construction kit v13_Sketch2
100
AcDbLine
 10
1.932747949794487
 20
0.0
 30
7.226403412433216
 11
1.158087709519999
 21
0.0
 31
7.673653710686187
  0
ARC
  5
100
330
70
100
AcDbEntity
  8
wc rolletjes construction kit v13_Sketch2
100
AcDbCircle
 10
-1.258087709520124
 20
7.846858791443293
 30
0.0
 40
0.2000000000002507
210
0.0
220
1.0
230
0.0
100
AcDbArc
 50
299.9999999999998
 51
40.6052760087932
  0
LINE
  5
101
330
70
100
AcDbEntity
  8
wc rolletjes construction kit v13_Sketch2
100
AcDbLine
 10
1.129825086388489
 20
0.0
 30
7.635700218455347
 11
1.90924794979448
 21
0.0
 31
7.185700218455346
  0
LINE
  5
102
330
70
100
AcDbEntity
  8
wc rolletjes construction kit v13_Sketch2
100
AcDbLine
 10
1.90924794979448
 20
0.0
 30
7.185700218455346
 11
1.932747949794487
 21
0.0
 31
7.226403412433216
  0
ARC
  5
103
330
70
100
AcDbEntity
  8
wc rolletjes construction kit v13_Sketch2
100
AcDbCircle
 10
-3.252554337336172
 20
7.82232103585137
 30
0.0
 40
0.2000000000287887
210
0.0
220
1.0
230
0.0
100
AcDbArc
 50
140.803417865699
 51
240.0
  0
LINE
  5
104
330
70
100
AcDbEntity
  8
wc rolletjes construction kit v13_Sketch2
100
AcDbLine
 10
2.596631473930174
 20
0.0
 30
7.158412761116612
 11
3.371291714204661
 21
0.0
 31
7.605663059369587
  0
ARC
  5
105
330
70
100
AcDbEntity
  8
wc rolletjes construction kit v13_Sketch2
100
AcDbCircle
 10
-3.471291714204787
 20
7.432457978612482
 30
0.0
 40
0.2000000000002513
210
0.0
220
1.0
230
0.0
100
AcDbArc
 50
59.99999999999996
 51
160.605276008793
  0
LINE
  5
106
330
70
100
AcDbEntity
  8
wc rolletjes construction kit v13_Sketch2
100
AcDbLine
 10
3.352554337336172
 20
0.0
 30
7.649115955094482
 11
2.57313147393018
 21
0.0
 31
7.199115955094482
  0
LINE
  5
107
330
70
100
AcDbEntity
  8
wc rolletjes construction kit v13_Sketch2
100
AcDbLine
 10
2.57313147393018
 20
0.0
 30
7.199115955094482
 11
2.596631473930174
 21
0.0
 31
7.158412761116612
  0
ARC
  5
108
330
70
100
AcDbEntity
  8
wc rolletjes construction kit v13_Sketch2
100
AcDbCircle
 10
-2.245062501442321
 20
7.000761421089764
 30
0.0
 40
1.500000000006157
210
0.0
220
1.0
230
0.0
100
AcDbArc
 50
160.6052760089673
 51
260.8043238252532
  0
ARC
  5
109
330
70
100
AcDbEntity
  8
wc rolletjes construction kit v13_Sketch2
100
AcDbCircle
 10
-2.245062501442321
 20
7.000761421089764
 30
0.0
 40
1.50000000000616
210
0.0
220
1.0
230
0.0
100
AcDbArc
 50
280.6052760089673
 51
20.80432382528119
  0
ARC
  5
10A
330
70
100
AcDbEntity
  8
wc rolletjes construction kit v13_Sketch2
100
AcDbCircle
 10
-2.245062501442321
 20
7.000761421089764
 30
0.0
 40
1.500000000006157
210
0.0
220
1.0
230
0.0
100
AcDbArc
 50
40.60527600896723
 51
140.8043238252811
  0
LINE
  5
10B
330
70
100
AcDbEntity
  8
wc rolletjes construction kit v13_Sketch2
100
AcDbLine
 10
12.30318349682685
 20
0.0
 30
10.58880445914617
 11
15.30318349682685
 21
0.0
 31
10.58880445914618
  0
LINE
  5
10C
330
70
100
AcDbEntity
  8
wc rolletjes construction kit v13_Sketch2
100
AcDbLine
 10
13.74618349682689
 20
0.0
 30
37.38880445914619
 11
13.86018349682689
 21
0.0
 31
37.38880445914619
  0
LINE
  5
10D
330
70
100
AcDbEntity
  8
wc rolletjes construction kit v13_Sketch2
100
AcDbLine
 10
13.86018349682689
 20
0.0
 30
37.38880445914619
 11
13.86018349682689
 21
0.0
 31
45.38880445914619
  0
LINE
  5
10E
330
70
100
AcDbEntity
  8
wc rolletjes construction kit v13_Sketch2
100
AcDbLine
 10
13.74618349682688
 20
0.0
 30
45.38880445914617
 11
13.74618349682689
 21
0.0
 31
37.38880445914619
  0
LINE
  5
10F
330
70
100
AcDbEntity
  8
wc rolletjes construction kit v13_Sketch2
100
AcDbLine
 10
15.30318349682691
 20
0.0
 30
45.58880445914618
 11
14.06018349682688
 21
0.0
 31
45.58880445914618
  0
LINE
  5
110
330
70
100
AcDbEntity
  8
wc rolletjes construction kit v13_Sketch2
100
AcDbLine
 10
13.54618349682688
 20
0.0
 30
45.58880445914618
 11
12.30318349682685
 21
0.0
 31
45.58880445914618
  0
ARC
  5
111
330
70
100
AcDbEntity
  8
wc rolletjes construction kit v13_Sketch2
100
AcDbCircle
 10
-13.54618349682688
 20
45.38880445914617
 30
0.0
 40
0.2000000000000028
210
0.0
220
1.0
230
0.0
100
AcDbArc
 50
90.0
 51
180.0
  0
ARC
  5
112
330
70
100
AcDbEntity
  8
wc rolletjes construction kit v13_Sketch2
100
AcDbCircle
 10
-14.06018349682688
 20
45.38880445914619
 30
0.0
 40
0.1999999999999868
210
0.0
220
1.0
230
0.0
100
AcDbArc
 50
0.0
 51
90.0
  0
LINE
  5
113
330
70
100
AcDbEntity
  8
wc rolletjes construction kit v13_Sketch2
100
AcDbLine
 10
14.94887433398114
 20
0.0
 30
34.01850742317503
 11
13.75163790584055
 21
0.0
 31
35.4705049884745
  0
LINE
  5
114
330
70
100
AcDbEntity
  8
wc rolletjes construction kit v13_Sketch2
100
AcDbLine
 10
13.75163790584055
 20
0.0
 30
35.4705049884745
 11
13.71274908968551
 21
0.0
 31
35.44411067131988
  0
LINE
  5
115
330
70
100
AcDbEntity
  8
wc rolletjes construction kit v13_Sketch2
100
AcDbLine
 10
13.71274908968551
 20
0.0
 30
35.44411067131988
 11
15.25749265967251
 21
0.0
 31
33.5706595718472
  0
LINE
  5
116
330
70
100
AcDbEntity
  8
wc rolletjes construction kit v13_Sketch2
100
AcDbLine
 10
15.30318349682689
 20
0.0
 30
34.14574217574619
 11
15.30318349682691
 21
0.0
 31
45.58880445914618
  0
LINE
  5
117
330
70
100
AcDbEntity
  8
wc rolletjes construction kit v13_Sketch2
100
AcDbLine
 10
14.93735654601412
 20
0.0
 30
26.05781029019114
 11
13.90556149946039
 21
0.0
 31
27.58808302090897
  0
LINE
  5
118
330
70
100
AcDbEntity
  8
wc rolletjes construction kit v13_Sketch2
100
AcDbLine
 10
13.90556149946039
 20
0.0
 30
27.58808302090897
 11
13.86660761597204
 21
0.0
 31
27.56178482779279
  0
LINE
  5
119
330
70
100
AcDbEntity
  8
wc rolletjes construction kit v13_Sketch2
100
AcDbLine
 10
13.86660761597204
 20
0.0
 30
27.56178482779279
 11
15.26901044763963
 21
0.0
 31
25.48185740620803
  0
LINE
  5
11A
330
70
100
AcDbEntity
  8
wc rolletjes construction kit v13_Sketch2
100
AcDbLine
 10
15.30318349682687
 20
0.0
 30
26.16962004998045
 11
15.30318349682689
 21
0.0
 31
33.44342481927589
  0
LINE
  5
11B
330
70
100
AcDbEntity
  8
wc rolletjes construction kit v13_Sketch2
100
AcDbLine
 10
12.33807384553893
 20
0.0
 30
29.55656137060798
 11
13.71401232301716
 21
0.0
 31
31.56939168347738
  0
LINE
  5
11C
330
70
100
AcDbEntity
  8
wc rolletjes construction kit v13_Sketch2
100
AcDbLine
 10
13.71401232301716
 20
0.0
 30
31.56939168347738
 11
13.67508462936072
 21
0.0
 31
31.59572862837595
  0
LINE
  5
11D
330
70
100
AcDbEntity
  8
wc rolletjes construction kit v13_Sketch2
100
AcDbLine
 10
13.67508462936072
 20
0.0
 30
31.59572862837595
 11
12.66829314811477
 21
0.0
 31
30.12291538464372
  0
LINE
  5
11E
330
70
100
AcDbEntity
  8
wc rolletjes construction kit v13_Sketch2
100
AcDbLine
 10
12.30318349682685
 20
0.0
 30
45.58880445914618
 11
12.30318349682685
 21
0.0
 31
30.23578169073894
  0
LINE
  5
11F
330
70
100
AcDbEntity
  8
wc rolletjes construction kit v13_Sketch2
100
AcDbLine
 10
12.33745593248278
 20
0.0
 30
21.55625379022358
 11
13.70264625181225
 21
0.0
 31
23.57711559667914
  0
LINE
  5
120
330
70
100
AcDbEntity
  8
wc rolletjes construction kit v13_Sketch2
100
AcDbLine
 10
13.70264625181225
 20
0.0
 30
23.57711559667914
 11
13.66353872980209
 21
0.0
 31
23.60318476855368
  0
LINE
  5
121
330
70
100
AcDbEntity
  8
wc rolletjes construction kit v13_Sketch2
100
AcDbLine
 10
13.66353872980209
 20
0.0
 30
23.60318476855368
 11
12.6689110611709
 21
0.0
 31
22.13085886737978
  0
LINE
  5
122
330
70
100
AcDbEntity
  8
wc rolletjes construction kit v13_Sketch2
100
AcDbLine
 10
12.30318349682685
 20
0.0
 30
29.44369506451275
 11
12.30318349682685
 21
0.0
 31
22.24281588777861
  0
LINE
  5
123
330
70
100
AcDbEntity
  8
wc rolletjes construction kit v13_Sketch2
100
AcDbLine
 10
14.93723640988921
 20
0.0
 30
17.97517821687944
 11
13.90779128399125
 21
0.0
 31
19.50551336417261
  0
LINE
  5
124
330
70
100
AcDbEntity
  8
wc rolletjes construction kit v13_Sketch2
100
AcDbLine
 10
13.90779128399125
 20
0.0
 30
19.50551336417261
 11
13.86889085468838
 21
0.0
 31
19.47913616568505
  0
LINE
  5
125
330
70
100
AcDbEntity
  8
wc rolletjes construction kit v13_Sketch2
100
AcDbLine
 10
13.86889085468838
 20
0.0
 30
19.47913616568505
 11
15.2691305837645
 21
0.0
 31
17.39759144014926
  0
LINE
  5
126
330
70
100
AcDbEntity
  8
wc rolletjes construction kit v13_Sketch2
100
AcDbLine
 10
15.30318349682685
 20
0.0
 30
10.58880445914618
 11
15.30318349682686
 21
0.0
 31
17.28596006312241
  0
LINE
  5
127
330
70
100
AcDbEntity
  8
wc rolletjes construction kit v13_Sketch2
100
AcDbLine
 10
15.30318349682686
 20
0.0
 30
18.08680959390629
 11
15.30318349682687
 21
0.0
 31
25.37004764641872
  0
LINE
  5
128
330
70
100
AcDbEntity
  8
wc rolletjes construction kit v13_Sketch2
100
AcDbLine
 10
12.33700788956151
 20
0.0
 30
13.55567309926788
 11
13.73173928689932
 21
0.0
 31
15.63823607310892
  0
LINE
  5
129
330
70
100
AcDbEntity
  8
wc rolletjes construction kit v13_Sketch2
100
AcDbLine
 10
13.73173928689932
 20
0.0
 30
15.63823607310892
 11
13.69431992244694
 21
0.0
 31
15.66667532703689
  0
LINE
  5
12A
330
70
100
AcDbEntity
  8
wc rolletjes construction kit v13_Sketch2
100
AcDbLine
 10
13.69431992244694
 20
0.0
 30
15.66667532703689
 11
12.66935910409218
 21
0.0
 31
14.1362405393654
  0
LINE
  5
12B
330
70
100
AcDbEntity
  8
wc rolletjes construction kit v13_Sketch2
100
AcDbLine
 10
12.30318349682685
 20
0.0
 30
21.44429676982475
 11
12.30318349682685
 21
0.0
 31
14.24753145341501
  0
LINE
  5
12C
330
70
100
AcDbEntity
  8
wc rolletjes construction kit v13_Sketch2
100
AcDbLine
 10
12.30318349682685
 20
0.0
 30
13.44438218521827
 11
12.30318349682685
 21
0.0
 31
10.58880445914617
  0
ARC
  5
12D
330
70
100
AcDbEntity
  8
wc rolletjes construction kit v13_Sketch2
100
AcDbCircle
 10
-23.60725480986483
 20
1.792593146941843
 30
0.0
 40
0.2000000000000002
210
0.0
220
1.0
230
0.0
100
AcDbArc
 50
90.00000000000103
 51
179.9999999999963
  0
ARC
  5
12E
330
70
100
AcDbEntity
  8
wc rolletjes construction kit v13_Sketch2
100
AcDbCircle
 10
-23.70725480986484
 20
0.6160931671140202
 30
0.0
 40
0.0999999999999517
210
0.0
220
1.0
230
0.0
100
AcDbArc
 50
180.0000000000015
 51
270.0000000000041
  0
LINE
  5
12F
330
70
100
AcDbEntity
  8
wc rolletjes construction kit v13_Sketch2
100
AcDbLine
 10
22.70725480986481
 20
0.0
 30
1.992593146941828
 11
22.70725480986481
 21
0.0
 31
2.039593146941828
  0
LINE
  5
130
330
70
100
AcDbEntity
  8
wc rolletjes construction kit v13_Sketch2
100
AcDbLine
 10
23.80725480986479
 20
0.0
 30
0.6160931671140176
 11
23.80725480986483
 21
0.0
 31
1.792593146941856
  0
LINE
  5
131
330
70
100
AcDbEntity
  8
wc rolletjes construction kit v13_Sketch2
100
AcDbLine
 10
22.70725480986481
 20
0.0
 30
2.039593146941828
 11
23.60725480986481
 21
0.0
 31
2.039593146941828
  0
LINE
  5
132
330
70
100
AcDbEntity
  8
wc rolletjes construction kit v13_Sketch2
100
AcDbLine
 10
23.60725480986483
 20
0.0
 30
1.992593146941843
 11
22.70725480986481
 21
0.0
 31
1.992593146941828
  0
LINE
  5
133
330
70
100
AcDbEntity
  8
wc rolletjes construction kit v13_Sketch2
100
AcDbLine
 10
22.33075480986501
 20
0.0
 30
1.51609316711433
 11
22.28375480986501
 21
0.0
 31
1.51609316711433
  0
LINE
  5
134
330
70
100
AcDbEntity
  8
wc rolletjes construction kit v13_Sketch2
100
AcDbLine
 10
22.28375480986501
 20
0.0
 30
1.51609316711433
 11
22.28375480986501
 21
0.0
 31
0.616093167114043
  0
LINE
  5
135
330
70
100
AcDbEntity
  8
wc rolletjes construction kit v13_Sketch2
100
AcDbLine
 10
20.90725480986517
 20
0.0
 30
0.5160931671140377
 11
22.183754809865
 21
0.0
 31
0.5160931671140375
  0
LINE
  5
136
330
70
100
AcDbEntity
  8
wc rolletjes construction kit v13_Sketch2
100
AcDbLine
 10
20.80725480986515
 20
0.0
 30
1.792592582125456
 11
20.80725480986515
 21
0.0
 31
0.6160931671140546
  0
ARC
  5
137
330
70
100
AcDbEntity
  8
wc rolletjes construction kit v13_Sketch2
100
AcDbCircle
 10
-22.43075480986501
 20
0.616093167113725
 30
0.0
 40
0.0999999999996588
210
0.0
220
1.0
230
0.0
100
AcDbArc
 50
270.0000000000041
 51
0.0000000003470621
  0
ARC
  5
138
330
70
100
AcDbEntity
  8
wc rolletjes construction kit v13_Sketch2
100
AcDbCircle
 10
-22.183754809865
 20
0.6160931671140428
 30
0.0
 40
0.100000000000005
210
0.0
220
1.0
230
0.0
100
AcDbArc
 50
179.9999999999998
 51
270.0
  0
LINE
  5
139
330
70
100
AcDbEntity
  8
wc rolletjes construction kit v13_Sketch2
100
AcDbLine
 10
22.430754809865
 20
0.0
 30
0.5160931671140662
 11
23.70725480986483
 21
0.0
 31
0.5160931671140227
  0
ARC
  5
13A
330
70
100
AcDbEntity
  8
wc rolletjes construction kit v13_Sketch2
100
AcDbCircle
 10
-20.90725480986517
 20
0.6160931671140548
 30
0.0
 40
0.1000000000000171
210
0.0
220
1.0
230
0.0
100
AcDbArc
 50
270.0
 51
360.0
  0
ARC
  5
13B
330
70
100
AcDbEntity
  8
wc rolletjes construction kit v13_Sketch2
100
AcDbCircle
 10
-21.00725480986516
 20
1.792592582125456
 30
0.0
 40
0.2000000000000064
210
0.0
220
1.0
230
0.0
100
AcDbArc
 50
0.0
 51
90.0
  0
ARC
  5
13C
330
70
100
AcDbEntity
  8
wc rolletjes construction kit v13_Sketch2
100
AcDbCircle
 10
-21.00725480986515
 20
2.23959258212545
 30
0.0
 40
0.2000000000000002
210
0.0
220
1.0
230
0.0
100
AcDbArc
 50
270.0
 51
0.0
  0
LINE
  5
13D
330
70
100
AcDbEntity
  8
wc rolletjes construction kit v13_Sketch2
100
AcDbLine
 10
21.00725480986516
 20
0.0
 30
1.992592582125462
 11
21.90725480986515
 21
0.0
 31
1.992592582125449
  0
ARC
  5
13E
330
70
100
AcDbEntity
  8
wc rolletjes construction kit v13_Sketch2
100
AcDbCircle
 10
-22.08375485020902
 20
3.316092471784653
 30
0.0
 40
0.1999999999999996
210
0.0
220
1.0
230
0.0
100
AcDbArc
 50
89.99997688457129
 51
180.0000000000014
  0
ARC
  5
13F
330
70
100
AcDbEntity
  8
wc rolletjes construction kit v13_Sketch2
100
AcDbCircle
 10
-23.7072548098645
 20
3.416093126769668
 30
0.0
 40
0.1000000000003097
210
0.0
220
1.0
230
0.0
100
AcDbArc
 50
89.99997688458554
 51
179.9999999999954
  0
LINE
  5
140
330
70
100
AcDbEntity
  8
wc rolletjes construction kit v13_Sketch2
100
AcDbLine
 10
21.90725480986515
 20
0.0
 30
2.039592582125449
 11
21.00725480986515
 21
0.0
 31
2.039592582125449
  0
LINE
  5
141
330
70
100
AcDbEntity
  8
wc rolletjes construction kit v13_Sketch2
100
AcDbLine
 10
23.70725476952049
 20
0.0
 30
3.51609312676997
 11
22.53075476952094
 21
0.0
 31
3.516092652122458
  0
LINE
  5
142
330
70
100
AcDbEntity
  8
wc rolletjes construction kit v13_Sketch2
100
AcDbLine
 10
23.8072548098648
 20
0.0
 30
2.239593146941837
 11
23.80725480986482
 21
0.0
 31
3.416093126769676
  0
LINE
  5
143
330
70
100
AcDbEntity
  8
wc rolletjes construction kit v13_Sketch2
100
AcDbLine
 10
22.08375476952095
 20
0.0
 30
3.516092471784636
 11
20.9072547695214
 21
0.0
 31
3.51609199713713
  0
ARC
  5
144
330
70
100
AcDbEntity
  8
wc rolletjes construction kit v13_Sketch2
100
AcDbCircle
 10
-20.90725480986542
 20
3.416091997136855
 30
0.0
 40
0.100000000000275
210
0.0
220
1.0
230
0.0
100
AcDbArc
 50
359.9999999999974
 51
89.99997688457741
  0
LINE
  5
145
330
70
100
AcDbEntity
  8
wc rolletjes construction kit v13_Sketch2
100
AcDbLine
 10
21.90725480986515
 20
0.0
 30
1.992592582125449
 11
21.90725480986515
 21
0.0
 31
2.039592582125449
  0
ARC
  5
146
330
70
100
AcDbEntity
  8
wc rolletjes construction kit v13_Sketch2
100
AcDbCircle
 10
-22.53075485020901
 20
3.316092652122482
 30
0.0
 40
0.2000000000000028
210
0.0
220
1.0
230
0.0
100
AcDbArc
 50
359.9999999999997
 51
89.99997688457231
  0
ARC
  5
147
330
70
100
AcDbEntity
  8
wc rolletjes construction kit v13_Sketch2
100
AcDbCircle
 10
-23.60725480986481
 20
2.239593146941828
 30
0.0
 40
0.1999999999999993
210
0.0
220
1.0
230
0.0
100
AcDbArc
 50
179.9999999999973
 51
270.0
  0
LINE
  5
148
330
70
100
AcDbEntity
  8
wc rolletjes construction kit v13_Sketch2
100
AcDbLine
 10
20.80725480986515
 20
0.0
 30
3.416091997136851
 11
20.80725480986515
 21
0.0
 31
2.23959258212545
  0
LINE
  5
149
330
70
100
AcDbEntity
  8
wc rolletjes construction kit v13_Sketch2
100
AcDbLine
 10
22.33075480986502
 20
0.0
 30
0.6160931671143307
 11
22.33075480986501
 21
0.0
 31
1.51609316711433
  0
LINE
  5
14A
330
70
100
AcDbEntity
  8
wc rolletjes construction kit v13_Sketch2
100
AcDbLine
 10
22.283754850209
 20
0.0
 30
2.416092652122482
 11
22.33075485020901
 21
0.0
 31
2.416092652122482
  0
LINE
  5
14B
330
70
100
AcDbEntity
  8
wc rolletjes construction kit v13_Sketch2
100
AcDbLine
 10
22.28375485020902
 20
0.0
 30
3.316092471784648
 11
22.283754850209
 21
0.0
 31
2.416092652122482
  0
LINE
  5
14C
330
70
100
AcDbEntity
  8
wc rolletjes construction kit v13_Sketch2
100
AcDbLine
 10
22.33075485020901
 20
0.0
 30
2.416092652122482
 11
22.33075485020901
 21
0.0
 31
3.316092652122482
  0
LINE
  5
14D
330
70
100
AcDbEntity
  8
wc rolletjes construction kit v13_Sketch2
100
AcDbLine
 10
23.24314491617105
 20
0.0
 30
7.190871996333835
 11
23.24314491617105
 21
0.0
 31
9.990871996344781
  0
LINE
  5
14E
330
70
100
AcDbEntity
  8
wc rolletjes construction kit v13_Sketch2
100
AcDbLine
 10
20.24314491617127
 20
0.0
 30
9.990871996337617
 11
20.24314491617098
 21
0.0
 31
7.19087199633749
  0
ARC
  5
14F
330
70
100
AcDbEntity
  8
wc rolletjes construction kit v13_Sketch2
100
AcDbCircle
 10
-20.34314491617122
 20
7.19087199633749
 30
0.0
 40
0.100000000000124
210
0.0
220
1.0
230
0.0
100
AcDbArc
 50
270.0000000000488
 51
0.0
  0
ARC
  5
150
330
70
100
AcDbEntity
  8
wc rolletjes construction kit v13_Sketch2
100
AcDbCircle
 10
-23.14314491617122
 20
7.190871996333797
 30
0.0
 40
0.0999999999998238
210
0.0
220
1.0
230
0.0
100
AcDbArc
 50
179.9999999999781
 51
269.9998482635364
  0
ARC
  5
151
330
70
100
AcDbEntity
  8
wc rolletjes construction kit v13_Sketch2
100
AcDbCircle
 10
-20.34314491617132
 20
9.990871996337647
 30
0.0
 40
0.1000000000000547
210
0.0
220
1.0
230
0.0
100
AcDbArc
 50
359.9999999999827
 51
90.00001760609531
  0
ARC
  5
152
330
70
100
AcDbEntity
  8
wc rolletjes construction kit v13_Sketch2
100
AcDbCircle
 10
-23.14314491617201
 20
9.990871996344781
 30
0.0
 40
0.0999999999992056
210
0.0
220
1.0
230
0.0
100
AcDbArc
 50
89.99999999986565
 51
180.0
  0
LINE
  5
153
330
70
100
AcDbEntity
  8
wc rolletjes construction kit v13_Sketch2
100
AcDbLine
 10
21.80014504858645
 20
0.0
 30
7.290871996335557
 11
21.80014504858642
 21
0.0
 31
7.990871996335955
  0
LINE
  5
154
330
70
100
AcDbEntity
  8
wc rolletjes construction kit v13_Sketch2
100
AcDbLine
 10
21.80014504858642
 20
0.0
 30
7.990871996335955
 11
21.68614504858642
 21
0.0
 31
7.990871996335957
  0
LINE
  5
155
330
70
100
AcDbEntity
  8
wc rolletjes construction kit v13_Sketch2
100
AcDbLine
 10
21.68614504858642
 20
0.0
 30
7.990871996335957
 11
21.68614504858642
 21
0.0
 31
7.290871996336166
  0
LINE
  5
156
330
70
100
AcDbEntity
  8
wc rolletjes construction kit v13_Sketch2
100
AcDbLine
 10
20.34314491617113
 20
0.0
 30
7.090871996337366
 11
21.48614504858621
 21
0.0
 31
7.090871996336166
  0
LINE
  5
157
330
70
100
AcDbEntity
  8
wc rolletjes construction kit v13_Sketch2
100
AcDbLine
 10
22.00014504858623
 20
0.0
 30
7.090871996335557
 11
23.14314518100131
 21
0.0
 31
7.090871996334165
  0
LINE
  5
158
330
70
100
AcDbEntity
  8
wc rolletjes construction kit v13_Sketch2
100
AcDbLine
 10
21.68614493153684
 20
0.0
 30
8.990871996340231
 11
21.80014493153684
 21
0.0
 31
8.990871996340231
  0
LINE
  5
159
330
70
100
AcDbEntity
  8
wc rolletjes construction kit v13_Sketch2
100
AcDbLine
 10
21.80014493153684
 20
0.0
 30
8.990871996340231
 11
21.8001449315356
 21
0.0
 31
9.890871996341083
  0
LINE
  5
15A
330
70
100
AcDbEntity
  8
wc rolletjes construction kit v13_Sketch2
100
AcDbLine
 10
21.68614493153685
 20
0.0
 30
9.890871996340232
 11
21.68614493153684
 21
0.0
 31
8.990871996340231
  0
LINE
  5
15B
330
70
100
AcDbEntity
  8
wc rolletjes construction kit v13_Sketch2
100
AcDbLine
 10
23.14314491617178
 20
0.0
 30
10.09087199634398
 11
22.00014493153514
 21
0.0
 31
10.09087199634139
  0
LINE
  5
15C
330
70
100
AcDbEntity
  8
wc rolletjes construction kit v13_Sketch2
100
AcDbLine
 10
21.48614493153639
 20
0.0
 30
10.09087199634023
 11
20.34314494689976
 21
0.0
 31
10.09087199633766
  0
ARC
  5
15D
330
70
100
AcDbEntity
  8
wc rolletjes construction kit v13_Sketch2
100
AcDbCircle
 10
-21.48614493153685
 20
9.890871996340232
 30
0.0
 40
0.1999999999999975
210
0.0
220
1.0
230
0.0
100
AcDbArc
 50
89.9999999998687
 51
180.0
  0
ARC
  5
15E
330
70
100
AcDbEntity
  8
wc rolletjes construction kit v13_Sketch2
100
AcDbCircle
 10
-22.0001449315356
 20
9.89087199634139
 30
0.0
 40
0.1999999999999993
210
0.0
220
1.0
230
0.0
100
AcDbArc
 50
359.9999999999119
 51
89.9999999998687
  0
ARC
  5
15F
330
70
100
AcDbEntity
  8
wc rolletjes construction kit v13_Sketch2
100
AcDbCircle
 10
-21.48614504858642
 20
7.290871996336166
 30
0.0
 40
0.1999999999999993
210
0.0
220
1.0
230
0.0
100
AcDbArc
 50
180.0
 51
270.00000000006
  0
ARC
  5
160
330
70
100
AcDbEntity
  8
wc rolletjes construction kit v13_Sketch2
100
AcDbCircle
 10
-22.00014504858645
 20
7.290871996335557
 30
0.0
 40
0.2000000000000002
210
0.0
220
1.0
230
0.0
100
AcDbArc
 50
270.00000000006
 51
0.0
  0
ARC
  5
161
330
70
100
AcDbEntity
  8
wc rolletjes construction kit v13_Sketch2
100
AcDbCircle
 10
-12.50318349682684
 20
14.24753145341501
 30
0.0
 40
0.1999999999999973
210
0.0
220
1.0
230
0.0
100
AcDbArc
 50
213.810960517034
 51
0.0000000000005089
  0
ARC
  5
162
330
70
100
AcDbEntity
  8
wc rolletjes construction kit v13_Sketch2
100
AcDbCircle
 10
-12.50318349682684
 20
13.44438218521827
 30
0.0
 40
0.1999999999999939
210
0.0
220
1.0
230
0.0
100
AcDbArc
 50
359.9999999999995
 51
33.81096051703526
  0
ARC
  5
163
330
70
100
AcDbEntity
  8
wc rolletjes construction kit v13_Sketch2
100
AcDbCircle
 10
-15.10318349682686
 20
18.08680959390629
 30
0.0
 40
0.2000000000000046
210
0.0
220
1.0
230
0.0
100
AcDbArc
 50
180.0
 51
326.0715703356658
  0
ARC
  5
164
330
70
100
AcDbEntity
  8
wc rolletjes construction kit v13_Sketch2
100
AcDbCircle
 10
-15.10318349682687
 20
17.28596006312242
 30
0.0
 40
0.1999999999999892
210
0.0
220
1.0
230
0.0
100
AcDbArc
 50
146.0715703356651
 51
180.000000000001
  0
ARC
  5
165
330
70
100
AcDbEntity
  8
wc rolletjes construction kit v13_Sketch2
100
AcDbCircle
 10
-12.50318349682684
 20
22.24281588777861
 30
0.0
 40
0.1999999999999922
210
0.0
220
1.0
230
0.0
100
AcDbArc
 50
214.0409374171779
 51
0.0000000000020356
  0
ARC
  5
166
330
70
100
AcDbEntity
  8
wc rolletjes construction kit v13_Sketch2
100
AcDbCircle
 10
-12.50318349682683
 20
21.44429676982475
 30
0.0
 40
0.1999999999999886
210
0.0
220
1.0
230
0.0
100
AcDbArc
 50
359.999999999999
 51
34.04093741718106
  0
ARC
  5
167
330
70
100
AcDbEntity
  8
wc rolletjes construction kit v13_Sketch2
100
AcDbCircle
 10
-15.10318349682687
 20
25.37004764641872
 30
0.0
 40
0.2000000000000051
210
0.0
220
1.0
230
0.0
100
AcDbArc
 50
146.0099586525365
 51
180.0
  0
ARC
  5
168
330
70
100
AcDbEntity
  8
wc rolletjes construction kit v13_Sketch2
100
AcDbCircle
 10
-15.10318349682688
 20
26.16962004998045
 30
0.0
 40
0.1999999999999993
210
0.0
220
1.0
230
0.0
100
AcDbArc
 50
180.0
 51
326.0099586525354
  0
ARC
  5
169
330
70
100
AcDbEntity
  8
wc rolletjes construction kit v13_Sketch2
100
AcDbCircle
 10
-12.50318349682684
 20
30.23578169073893
 30
0.0
 40
0.1999999999999959
210
0.0
220
1.0
230
0.0
100
AcDbArc
 50
214.355884461415
 51
0.0000000000010178
  0
ARC
  5
16A
330
70
100
AcDbEntity
  8
wc rolletjes construction kit v13_Sketch2
100
AcDbCircle
 10
-12.50318349682682
 20
29.44369506451275
 30
0.0
 40
0.1999999999999726
210
0.0
220
1.0
230
0.0
100
AcDbArc
 50
359.999999999998
 51
34.35588446142066
  0
ARC
  5
16B
330
70
100
AcDbEntity
  8
wc rolletjes construction kit v13_Sketch2
100
AcDbCircle
 10
-15.10318349682689
 20
34.14574217574619
 30
0.0
 40
0.2000000000000011
210
0.0
220
1.0
230
0.0
100
AcDbArc
 50
180.0
 51
320.4929052728237
  0
ARC
  5
16C
330
70
100
AcDbEntity
  8
wc rolletjes construction kit v13_Sketch2
100
AcDbCircle
 10
-15.10318349682687
 20
33.44342481927589
 30
0.0
 40
0.2000000000000137
210
0.0
220
1.0
230
0.0
100
AcDbArc
 50
140.4929052727687
 51
179.9999999999979
  0
POINT
  5
16E
330
70
100
AcDbEntity
  8
wc rolletjes construction kit v13_Sketch3
100
AcDbPoint
 10
0.0
 20
0.0
 30
0.0
  0
POINT
  5
16F
330
70
100
AcDbEntity
  8
wc rolletjes construction kit v13_Sketch3
100
AcDbPoint
 10
70.92973667705433
 20
0.0
 30
51.54650640038209
  0
POINT
  5
170
330
70
100
AcDbEntity
  8
wc rolletjes construction kit v13_Sketch3
100
AcDbPoint
 10
70.94150565866321
 20
0.0
 30
43.54650640038208
  0
POINT
  5
171
330
70
100
AcDbEntity
  8
wc rolletjes construction kit v13_Sketch3
100
AcDbPoint
 10
67.94150565866317
 20
0.0
 30
47.47918164790877
  0
POINT
  5
172
330
70
100
AcDbEntity
  8
wc rolletjes construction kit v13_Sketch3
100
AcDbPoint
 10
54.76199294027196
 20
0.0
 30
43.87879708076058
  0
POINT
  5
173
330
70
100
AcDbEntity
  8
wc rolletjes construction kit v13_Sketch3
100
AcDbPoint
 10
54.75022395866308
 20
0.0
 30
51.87879708076057
  0
POINT
  5
174
330
70
100
AcDbEntity
  8
wc rolletjes construction kit v13_Sketch3
100
AcDbPoint
 10
51.76199294027193
 20
0.0
 30
47.81147232828727
  0
POINT
  5
175
330
70
100
AcDbEntity
  8
wc rolletjes construction kit v13_Sketch3
100
AcDbPoint
 10
45.50018002262254
 20
0.0
 30
52.65892126813739
  0
POINT
  5
176
330
70
100
AcDbEntity
  8
wc rolletjes construction kit v13_Sketch3
100
AcDbPoint
 10
45.51194900423142
 20
0.0
 30
44.65892126813742
  0
POINT
  5
177
330
70
100
AcDbEntity
  8
wc rolletjes construction kit v13_Sketch3
100
AcDbPoint
 10
42.51194900423139
 20
0.0
 30
48.5915965156641
  0
ARC
  5
178
330
70
100
AcDbEntity
  8
wc rolletjes construction kit v13_Sketch3
100
AcDbCircle
 10
-70.74150565866322
 20
35.32144664651844
 30
0.0
 40
0.1999999999999962
210
0.0
220
1.0
230
0.0
100
AcDbArc
 50
146.071570335664
 51
180.0
  0
LINE
  5
179
330
70
100
AcDbEntity
  8
wc rolletjes construction kit v13_Sketch3
100
AcDbLine
 10
69.50721301652471
 20
0.0
 30
37.51462274908107
 11
70.90745274560084
 21
0.0
 31
35.43307802354529
  0
LINE
  5
17A
330
70
100
AcDbEntity
  8
wc rolletjes construction kit v13_Sketch3
100
AcDbLine
 10
69.54611344582758
 20
0.0
 30
37.54099994756864
 11
69.50721301652471
 21
0.0
 31
37.51462274908107
  0
LINE
  5
17B
330
70
100
AcDbEntity
  8
wc rolletjes construction kit v13_Sketch3
100
AcDbLine
 10
70.57555857172555
 20
0.0
 30
36.01066480027546
 11
69.54611344582758
 21
0.0
 31
37.54099994756864
  0
ARC
  5
17C
330
70
100
AcDbEntity
  8
wc rolletjes construction kit v13_Sketch3
100
AcDbCircle
 10
-70.7415056586632
 20
36.12229617730232
 30
0.0
 40
0.2000000000000028
210
0.0
220
1.0
230
0.0
100
AcDbArc
 50
180.0
 51
326.0715703356663
  0
LINE
  5
17D
330
70
100
AcDbEntity
  8
wc rolletjes construction kit v13_Sketch3
100
AcDbLine
 10
70.94150565866321
 20
0.0
 30
45.22303688712521
 11
70.94150565866321
 21
0.0
 31
51.47891140267191
  0
ARC
  5
17E
330
70
100
AcDbEntity
  8
wc rolletjes construction kit v13_Sketch3
100
AcDbCircle
 10
-70.7415056586632
 20
51.47891140267191
 30
0.0
 40
0.2000000000000136
210
0.0
220
1.0
230
0.0
100
AcDbArc
 50
140.4929052727687
 51
179.9999999999979
  0
LINE
  5
17F
330
70
100
AcDbEntity
  8
wc rolletjes construction kit v13_Sketch3
100
AcDbLine
 10
69.35107125152184
 20
0.0
 30
53.47959725471589
 11
70.89581482150883
 21
0.0
 31
51.60614615524322
  0
LINE
  5
180
330
70
100
AcDbEntity
  8
wc rolletjes construction kit v13_Sketch3
100
AcDbLine
 10
69.38996006767688
 20
0.0
 30
53.50599157187052
 11
69.35107125152184
 21
0.0
 31
53.47959725471589
  0
LINE
  5
181
330
70
100
AcDbEntity
  8
wc rolletjes construction kit v13_Sketch3
100
AcDbLine
 10
70.58719649581746
 20
0.0
 30
52.05399400657104
 11
69.38996006767688
 21
0.0
 31
53.50599157187052
  0
ARC
  5
182
330
70
100
AcDbEntity
  8
wc rolletjes construction kit v13_Sketch3
100
AcDbCircle
 10
-70.74150565866322
 20
52.18122875914221
 30
0.0
 40
0.2000000000000028
210
0.0
220
1.0
230
0.0
100
AcDbArc
 50
180.0
 51
320.492905272824
  0
LINE
  5
183
330
70
100
AcDbEntity
  8
wc rolletjes construction kit v13_Sketch3
100
AcDbLine
 10
70.94150565866321
 20
0.0
 30
52.18122875914221
 11
70.94150565866323
 21
0.0
 31
63.6242910425422
  0
LINE
  5
184
330
70
100
AcDbEntity
  8
wc rolletjes construction kit v13_Sketch3
100
AcDbLine
 10
70.94150565866323
 20
0.0
 30
63.6242910425422
 11
69.69850565866321
 21
0.0
 31
63.6242910425422
  0
ARC
  5
185
330
70
100
AcDbEntity
  8
wc rolletjes construction kit v13_Sketch3
100
AcDbCircle
 10
-69.69850565866321
 20
63.42429104254222
 30
0.0
 40
0.1999999999999886
210
0.0
220
1.0
230
0.0
100
AcDbArc
 50
0.0
 51
90.0
  0
LINE
  5
186
330
70
100
AcDbEntity
  8
wc rolletjes construction kit v13_Sketch3
100
AcDbLine
 10
69.49850565866322
 20
0.0
 30
55.42429104254221
 11
69.49850565866322
 21
0.0
 31
63.42429104254222
  0
LINE
  5
187
330
70
100
AcDbEntity
  8
wc rolletjes construction kit v13_Sketch3
100
AcDbLine
 10
69.38450565866322
 20
0.0
 30
55.42429104254221
 11
69.49850565866322
 21
0.0
 31
55.42429104254221
  0
LINE
  5
188
330
70
100
AcDbEntity
  8
wc rolletjes construction kit v13_Sketch3
100
AcDbLine
 10
69.38450565866322
 20
0.0
 30
63.4242910425422
 11
69.38450565866322
 21
0.0
 31
55.42429104254221
  0
ARC
  5
189
330
70
100
AcDbEntity
  8
wc rolletjes construction kit v13_Sketch3
100
AcDbCircle
 10
-69.18450565866321
 20
63.4242910425422
 30
0.0
 40
0.2000000000000028
210
0.0
220
1.0
230
0.0
100
AcDbArc
 50
90.0
 51
180.0
  0
LINE
  5
18A
330
70
100
AcDbEntity
  8
wc rolletjes construction kit v13_Sketch3
100
AcDbLine
 10
69.18450565866321
 20
0.0
 30
63.6242910425422
 11
67.94150565866317
 21
0.0
 31
63.6242910425422
  0
LINE
  5
18B
330
70
100
AcDbEntity
  8
wc rolletjes construction kit v13_Sketch3
100
AcDbLine
 10
67.94150565866317
 20
0.0
 30
63.6242910425422
 11
67.94150565866317
 21
0.0
 31
48.27126827413495
  0
ARC
  5
18C
330
70
100
AcDbEntity
  8
wc rolletjes construction kit v13_Sketch3
100
AcDbCircle
 10
-68.14150565866317
 20
48.27126827413495
 30
0.0
 40
0.199999999999993
210
0.0
220
1.0
230
0.0
100
AcDbArc
 50
214.3558844614155
 51
0.0
  0
LINE
  5
18D
330
70
100
AcDbEntity
  8
wc rolletjes construction kit v13_Sketch3
100
AcDbLine
 10
69.31340679119705
 20
0.0
 30
49.63121521177197
 11
68.3066153099511
 21
0.0
 31
48.15840196803974
  0
LINE
  5
18E
330
70
100
AcDbEntity
  8
wc rolletjes construction kit v13_Sketch3
100
AcDbLine
 10
69.35233448485348
 20
0.0
 30
49.6048782668734
 11
69.31340679119705
 21
0.0
 31
49.63121521177197
  0
LINE
  5
18F
330
70
100
AcDbEntity
  8
wc rolletjes construction kit v13_Sketch3
100
AcDbLine
 10
67.97639600737525
 20
0.0
 30
47.59204795400399
 11
69.35233448485348
 21
0.0
 31
49.6048782668734
  0
ARC
  5
190
330
70
100
AcDbEntity
  8
wc rolletjes construction kit v13_Sketch3
100
AcDbCircle
 10
-68.14150565866315
 20
47.47918164790877
 30
0.0
 40
0.1999999999999744
210
0.0
220
1.0
230
0.0
100
AcDbArc
 50
0.0
 51
34.3558844614218
  0
LINE
  5
191
330
70
100
AcDbEntity
  8
wc rolletjes construction kit v13_Sketch3
100
AcDbLine
 10
67.94150565866317
 20
0.0
 30
47.47918164790877
 11
67.94150565866317
 21
0.0
 31
40.27830247117464
  0
ARC
  5
192
330
70
100
AcDbEntity
  8
wc rolletjes construction kit v13_Sketch3
100
AcDbCircle
 10
-68.14150565866319
 20
32.28301803681104
 30
0.0
 40
0.1999999999999944
210
0.0
220
1.0
230
0.0
100
AcDbArc
 50
213.8109605170345
 51
0.0
  0
LINE
  5
193
330
70
100
AcDbEntity
  8
wc rolletjes construction kit v13_Sketch3
100
AcDbLine
 10
69.33264208428328
 20
0.0
 30
33.70216191043292
 11
68.30768126592852
 21
0.0
 31
32.17172712276143
  0
LINE
  5
194
330
70
100
AcDbEntity
  8
wc rolletjes construction kit v13_Sketch3
100
AcDbLine
 10
69.37006144873567
 20
0.0
 30
33.67372265650495
 11
69.33264208428328
 21
0.0
 31
33.70216191043292
  0
LINE
  5
195
330
70
100
AcDbEntity
  8
wc rolletjes construction kit v13_Sketch3
100
AcDbLine
 10
67.97533005139785
 20
0.0
 30
31.59115968266391
 11
69.37006144873567
 21
0.0
 31
33.67372265650495
  0
ARC
  5
196
330
70
100
AcDbEntity
  8
wc rolletjes construction kit v13_Sketch3
100
AcDbCircle
 10
-68.14150565866317
 20
31.4798687686143
 30
0.0
 40
0.1999999999999886
210
0.0
220
1.0
230
0.0
100
AcDbArc
 50
0.0
 51
33.81096051703682
  0
LINE
  5
197
330
70
100
AcDbEntity
  8
wc rolletjes construction kit v13_Sketch3
100
AcDbLine
 10
67.94150565866319
 20
0.0
 30
31.4798687686143
 11
67.94150565866319
 21
0.0
 31
28.6242910425422
  0
LINE
  5
198
330
70
100
AcDbEntity
  8
wc rolletjes construction kit v13_Sketch3
100
AcDbLine
 10
67.94150565866319
 20
0.0
 30
28.6242910425422
 11
70.94150565866319
 21
0.0
 31
28.62429104254221
  0
LINE
  5
199
330
70
100
AcDbEntity
  8
wc rolletjes construction kit v13_Sketch3
100
AcDbLine
 10
70.94150565866319
 20
0.0
 30
28.62429104254221
 11
70.9415056586632
 21
0.0
 31
35.32144664651844
  0
LINE
  5
19A
330
70
100
AcDbEntity
  8
wc rolletjes construction kit v13_Sketch3
100
AcDbLine
 10
70.94150565866321
 20
0.0
 30
44.7249870017855
 11
70.94150565866321
 21
0.0
 31
45.22303688712521
  0
LINE
  5
19B
330
70
100
AcDbEntity
  8
wc rolletjes construction kit v13_Sketch3
100
AcDbLine
 10
70.57767524980544
 20
0.0
 30
44.06611007358447
 11
70.08114100413661
 21
0.0
 31
44.77523446681554
  0
LINE
  5
19C
330
70
100
AcDbEntity
  8
wc rolletjes construction kit v13_Sketch3
100
AcDbLine
 10
70.08114100413661
 20
0.0
 30
44.77523446681554
 11
69.85177843173571
 21
0.0
 31
44.61463306463726
  0
LINE
  5
19D
330
70
100
AcDbEntity
  8
wc rolletjes construction kit v13_Sketch3
100
AcDbLine
 10
69.85177843173571
 20
0.0
 30
44.61463306463726
 11
70.90533606752102
 21
0.0
 31
43.10999682710258
  0
LINE
  5
19E
330
70
100
AcDbEntity
  8
wc rolletjes construction kit v13_Sketch3
100
AcDbLine
 10
70.9415056586632
 20
0.0
 30
36.12229617730232
 11
70.94150565866321
 21
0.0
 31
42.99528153983237
  0
LINE
  5
19F
330
70
100
AcDbEntity
  8
wc rolletjes construction kit v13_Sketch3
100
AcDbLine
 10
70.94150565866321
 20
0.0
 30
44.18082536085466
 11
70.94150565866321
 21
0.0
 31
44.7249870017855
  0
ARC
  5
1A0
330
70
100
AcDbEntity
  8
wc rolletjes construction kit v13_Sketch3
100
AcDbCircle
 10
-70.74150565866315
 20
42.99528153983235
 30
0.0
 40
0.2000000000000754
210
0.0
220
1.0
230
0.0
100
AcDbArc
 50
145.0000000000081
 51
179.9999999999959
  0
ARC
  5
1A1
330
70
100
AcDbEntity
  8
wc rolletjes construction kit v13_Sketch3
100
AcDbCircle
 10
-70.74150565866323
 20
44.18082536085466
 30
0.0
 40
0.1999999999999886
210
0.0
220
1.0
230
0.0
100
AcDbArc
 50
179.9999999999979
 51
325.0000000000024
  0
LINE
  5
1A2
330
70
100
AcDbEntity
  8
wc rolletjes construction kit v13_Sketch3
100
AcDbLine
 10
67.94150565866317
 20
0.0
 30
40.09404426071634
 11
67.94150565866317
 21
0.0
 31
40.27830247117464
  0
LINE
  5
1A3
330
70
100
AcDbEntity
  8
wc rolletjes construction kit v13_Sketch3
100
AcDbLine
 10
67.97977804023702
 20
0.0
 30
39.05592322620409
 11
69.05332779539152
 21
0.0
 31
40.53153730444395
  0
LINE
  5
1A4
330
70
100
AcDbEntity
  8
wc rolletjes construction kit v13_Sketch3
100
AcDbLine
 10
69.05332779539152
 20
0.0
 30
40.53153730444395
 11
68.82396527864511
 21
0.0
 31
40.69213878610507
  0
LINE
  5
1A5
330
70
100
AcDbEntity
  8
wc rolletjes construction kit v13_Sketch3
100
AcDbLine
 10
68.82396527864511
 20
0.0
 30
40.69213878610507
 11
68.30323327708935
 21
0.0
 31
39.97638297805209
  0
LINE
  5
1A6
330
70
100
AcDbEntity
  8
wc rolletjes construction kit v13_Sketch3
100
AcDbLine
 10
67.94150565866317
 20
0.0
 30
39.47978335322077
 11
67.94150565866317
 21
0.0
 31
39.47918164790877
  0
LINE
  5
1A7
330
70
100
AcDbEntity
  8
wc rolletjes construction kit v13_Sketch3
100
AcDbLine
 10
67.94150565866319
 20
0.0
 30
38.93826194353983
 11
67.94150565866319
 21
0.0
 31
32.28301803681104
  0
ARC
  5
1A8
330
70
100
AcDbEntity
  8
wc rolletjes construction kit v13_Sketch3
100
AcDbCircle
 10
-68.14150565866331
 20
38.93826194353979
 30
0.0
 40
0.2000000000001165
210
0.0
220
1.0
230
0.0
100
AcDbArc
 50
0.0000000000122133
 51
36.03691803847033
  0
ARC
  5
1A9
330
70
100
AcDbEntity
  8
wc rolletjes construction kit v13_Sketch3
100
AcDbCircle
 10
-68.14150565866317
 20
40.09404426071634
 30
0.0
 40
0.1999999999999981
210
0.0
220
1.0
230
0.0
100
AcDbArc
 50
216.0369180384796
 51
0.0
  0
LINE
  5
1AA
330
70
100
AcDbEntity
  8
wc rolletjes construction kit v13_Sketch3
100
AcDbLine
 10
51.76199294027195
 20
0.0
 30
39.27055262391834
 11
51.76199294027195
 21
0.0
 31
32.61530871718957
  0
ARC
  5
1AB
330
70
100
AcDbEntity
  8
wc rolletjes construction kit v13_Sketch3
100
AcDbCircle
 10
-52.92322823479269
 20
60.33522218972274
 30
0.0
 40
0.200000000000058
210
0.0
220
1.0
230
0.0
100
AcDbArc
 50
89.64719815219032
 51
179.6471981521272
  0
LINE
  5
1AC
330
70
100
AcDbEntity
  8
wc rolletjes construction kit v13_Sketch3
100
AcDbLine
 10
54.76199294027225
 20
0.0
 30
28.6707802700019
 11
54.76199294027196
 21
0.0
 31
35.65373732689696
  0
ARC
  5
1AD
330
70
100
AcDbEntity
  8
wc rolletjes construction kit v13_Sketch3
100
AcDbCircle
 10
-53.60322065172443
 20
60.33940933256787
 30
0.0
 40
0.2000000000000083
210
0.0
220
1.0
230
0.0
100
AcDbArc
 50
359.6471981521903
 51
89.64719815219025
  0
ARC
  5
1AE
330
70
100
AcDbEntity
  8
wc rolletjes construction kit v13_Sketch3
100
AcDbCircle
 10
-54.56199294027195
 20
51.81120208305038
 30
0.0
 40
0.2000000000000136
210
0.0
220
1.0
230
0.0
100
AcDbArc
 50
140.4929052727687
 51
179.9999999999979
  0
LINE
  5
1AF
330
70
100
AcDbEntity
  8
wc rolletjes construction kit v13_Sketch3
100
AcDbLine
 10
51.79581733300661
 20
0.0
 30
31.92345036304244
 11
53.19054873034442
 21
0.0
 31
34.00601333688347
  0
ARC
  5
1B0
330
70
100
AcDbEntity
  8
wc rolletjes construction kit v13_Sketch3
100
AcDbCircle
 10
-51.96199294027193
 20
31.81215944899282
 30
0.0
 40
0.1999999999999815
210
0.0
220
1.0
230
0.0
100
AcDbArc
 50
0.0
 51
33.81096051703682
  0
LINE
  5
1B1
330
70
100
AcDbEntity
  8
wc rolletjes construction kit v13_Sketch3
100
AcDbLine
 10
54.76199294027196
 20
0.0
 30
36.45458685768084
 11
54.76199294027196
 21
0.0
 31
43.32757222021087
  0
LINE
  5
1B2
330
70
100
AcDbEntity
  8
wc rolletjes construction kit v13_Sketch3
100
AcDbLine
 10
51.76199294027195
 20
0.0
 30
31.81215944899282
 11
51.76199294027195
 21
0.0
 31
28.6723258358168
  0
ARC
  5
1B3
330
70
100
AcDbEntity
  8
wc rolletjes construction kit v13_Sketch3
100
AcDbCircle
 10
-51.96199294027195
 20
32.61530871718957
 30
0.0
 40
0.1999999999999944
210
0.0
220
1.0
230
0.0
100
AcDbArc
 50
213.8109605170345
 51
0.0
  0
LINE
  5
1B4
330
70
100
AcDbEntity
  8
wc rolletjes construction kit v13_Sketch3
100
AcDbLine
 10
51.76199294027196
 20
0.0
 30
60.52807552209824
 11
51.76199294027193
 21
0.0
 31
48.60355895451345
  0
LINE
  5
1B5
330
70
100
AcDbEntity
  8
wc rolletjes construction kit v13_Sketch3
100
AcDbLine
 10
53.15312936589204
 20
0.0
 30
34.03445259081144
 11
52.12816854753728
 21
0.0
 31
32.50401780313996
  0
ARC
  5
1B6
330
70
100
AcDbEntity
  8
wc rolletjes construction kit v13_Sketch3
100
AcDbCircle
 10
-54.56199294027197
 20
52.51351943952069
 30
0.0
 40
0.2000000000000028
210
0.0
220
1.0
230
0.0
100
AcDbArc
 50
180.0
 51
320.492905272824
  0
LINE
  5
1B7
330
70
100
AcDbEntity
  8
wc rolletjes construction kit v13_Sketch3
100
AcDbLine
 10
53.32770029813347
 20
0.0
 30
37.84691342945959
 11
54.7279400272096
 21
0.0
 31
35.76536870392381
  0
LINE
  5
1B8
330
70
100
AcDbEntity
  8
wc rolletjes construction kit v13_Sketch3
100
AcDbLine
 10
53.19054873034442
 20
0.0
 30
34.00601333688347
 11
53.15312936589204
 21
0.0
 31
34.03445259081144
  0
LINE
  5
1B9
330
70
100
AcDbEntity
  8
wc rolletjes construction kit v13_Sketch3
100
AcDbLine
 10
54.76199294027196
 20
0.0
 30
45.55532756750372
 11
54.76199294027196
 21
0.0
 31
51.81120208305039
  0
LINE
  5
1BA
330
70
100
AcDbEntity
  8
wc rolletjes construction kit v13_Sketch3
100
AcDbLine
 10
54.76199294026899
 20
0.0
 30
60.54654841712252
 11
53.60198914873635
 21
0.0
 31
60.53940554103292
  0
LINE
  5
1BB
330
70
100
AcDbEntity
  8
wc rolletjes construction kit v13_Sketch3
100
AcDbLine
 10
53.36660072743634
 20
0.0
 30
37.87329062794716
 11
53.32770029813347
 21
0.0
 31
37.84691342945959
  0
LINE
  5
1BC
330
70
100
AcDbEntity
  8
wc rolletjes construction kit v13_Sketch3
100
AcDbLine
 10
52.87381507700028
 20
0.0
 30
40.86382798482246
 11
52.64445256025386
 21
0.0
 31
41.02442946648358
  0
LINE
  5
1BD
330
70
100
AcDbEntity
  8
wc rolletjes construction kit v13_Sketch3
100
AcDbLine
 10
53.21044734928563
 20
0.0
 30
53.83828225224901
 11
53.17155853313059
 21
0.0
 31
53.81188793509438
  0
LINE
  5
1BE
330
70
100
AcDbEntity
  8
wc rolletjes construction kit v13_Sketch3
100
AcDbLine
 10
53.12322444325778
 20
0.0
 30
60.33645369271104
 11
53.13246089077154
 21
0.0
 31
58.83645369271086
  0
LINE
  5
1BF
330
70
100
AcDbEntity
  8
wc rolletjes construction kit v13_Sketch3
100
AcDbLine
 10
54.3960458533343
 20
0.0
 30
36.34295548065399
 11
53.36660072743634
 21
0.0
 31
37.87329062794716
  0
LINE
  5
1C0
330
70
100
AcDbEntity
  8
wc rolletjes construction kit v13_Sketch3
100
AcDbLine
 10
51.76199294027194
 20
0.0
 30
40.42633494109486
 11
51.76199294027194
 21
0.0
 31
40.61059315155315
  0
LINE
  5
1C1
330
70
100
AcDbEntity
  8
wc rolletjes construction kit v13_Sketch3
100
AcDbLine
 10
52.64445256025386
 20
0.0
 30
41.02442946648358
 11
52.1237205586981
 21
0.0
 31
40.3086736584306
  0
LINE
  5
1C2
330
70
100
AcDbEntity
  8
wc rolletjes construction kit v13_Sketch3
100
AcDbLine
 10
53.41246089077155
 20
0.0
 30
58.83817782957979
 11
53.40322444325938
 21
0.0
 31
60.3381778295798
  0
LINE
  5
1C3
330
70
100
AcDbEntity
  8
wc rolletjes construction kit v13_Sketch3
100
AcDbLine
 10
54.76199294027196
 20
0.0
 30
52.51351943952069
 11
54.76199294026899
 21
0.0
 31
60.54654841712252
  0
LINE
  5
1C4
330
70
100
AcDbEntity
  8
wc rolletjes construction kit v13_Sketch3
100
AcDbLine
 10
53.17155853313059
 20
0.0
 30
53.81188793509438
 11
54.71630210311758
 21
0.0
 31
51.93843683562171
  0
LINE
  5
1C5
330
70
100
AcDbEntity
  8
wc rolletjes construction kit v13_Sketch3
100
AcDbLine
 10
54.40768377742621
 20
0.0
 30
52.38628468694953
 11
53.21044734928563
 21
0.0
 31
53.83828225224901
  0
ARC
  5
1C6
330
70
100
AcDbEntity
  8
wc rolletjes construction kit v13_Sketch3
100
AcDbCircle
 10
-54.56199294027196
 20
36.45458685768084
 30
0.0
 40
0.2000000000000028
210
0.0
220
1.0
230
0.0
100
AcDbArc
 50
180.0
 51
326.0715703356652
  0
LINE
  5
1C7
330
70
100
AcDbEntity
  8
wc rolletjes construction kit v13_Sketch3
100
AcDbLine
 10
52.92199673180461
 20
0.0
 30
60.53521839818784
 11
51.76199294027196
 21
0.0
 31
60.52807552209824
  0
ARC
  5
1C8
330
70
100
AcDbEntity
  8
wc rolletjes construction kit v13_Sketch3
100
AcDbCircle
 10
-54.56199294027197
 20
35.65373732689696
 30
0.0
 40
0.1999999999999961
210
0.0
220
1.0
230
0.0
100
AcDbArc
 50
146.071570335664
 51
180.0
  0
LINE
  5
1C9
330
70
100
AcDbEntity
  8
wc rolletjes construction kit v13_Sketch3
100
AcDbLine
 10
51.80026532184578
 20
0.0
 30
39.3882139065826
 11
52.87381507700028
 21
0.0
 31
40.86382798482246
  0
LINE
  5
1CA
330
70
100
AcDbEntity
  8
wc rolletjes construction kit v13_Sketch3
100
AcDbLine
 10
51.76199294027194
 20
0.0
 30
39.81207403359928
 11
51.76199294027194
 21
0.0
 31
39.81147232828729
  0
LINE
  5
1CB
330
70
100
AcDbEntity
  8
wc rolletjes construction kit v13_Sketch3
100
AcDbLine
 10
53.13246089077154
 20
0.0
 30
58.83645369271086
 11
53.41246089077155
 21
0.0
 31
58.83817782957979
  0
LINE
  5
1CC
330
70
100
AcDbEntity
  8
wc rolletjes construction kit v13_Sketch3
100
AcDbLine
 10
54.39816253141419
 20
0.0
 30
44.39840075396297
 11
53.90162828574536
 21
0.0
 31
45.10752514719405
  0
LINE
  5
1CD
330
70
100
AcDbEntity
  8
wc rolletjes construction kit v13_Sketch3
100
AcDbLine
 10
53.90162828574536
 20
0.0
 30
45.10752514719405
 11
53.67226571334446
 21
0.0
 31
44.94692374501576
  0
ARC
  5
1CE
330
70
100
AcDbEntity
  8
wc rolletjes construction kit v13_Sketch3
100
AcDbCircle
 10
-54.56199294027197
 20
44.51311604123317
 30
0.0
 40
0.1999999999999886
210
0.0
220
1.0
230
0.0
100
AcDbArc
 50
179.9999999999979
 51
325.0000000000024
  0
LINE
  5
1CF
330
70
100
AcDbEntity
  8
wc rolletjes construction kit v13_Sketch3
100
AcDbLine
 10
53.67226571334446
 20
0.0
 30
44.94692374501576
 11
54.72582334912977
 21
0.0
 31
43.44228750748109
  0
LINE
  5
1D0
330
70
100
AcDbEntity
  8
wc rolletjes construction kit v13_Sketch3
100
AcDbLine
 10
54.76199294027196
 20
0.0
 30
44.51311604123318
 11
54.76199294027196
 21
0.0
 31
45.057277682164
  0
ARC
  5
1D1
330
70
100
AcDbEntity
  8
wc rolletjes construction kit v13_Sketch3
100
AcDbCircle
 10
-54.56199294027189
 20
43.32757222021085
 30
0.0
 40
0.2000000000000754
210
0.0
220
1.0
230
0.0
100
AcDbArc
 50
145.0000000000081
 51
179.9999999999959
  0
LINE
  5
1D2
330
70
100
AcDbEntity
  8
wc rolletjes construction kit v13_Sketch3
100
AcDbLine
 10
54.76199294027196
 20
0.0
 30
45.057277682164
 11
54.76199294027196
 21
0.0
 31
45.55532756750372
  0
ARC
  5
1D3
330
70
100
AcDbEntity
  8
wc rolletjes construction kit v13_Sketch3
100
AcDbCircle
 10
-51.96199294027206
 20
39.2705526239183
 30
0.0
 40
0.2000000000001094
210
0.0
220
1.0
230
0.0
100
AcDbArc
 50
0.0000000000122133
 51
36.03691803847153
  0
ARC
  5
1D4
330
70
100
AcDbEntity
  8
wc rolletjes construction kit v13_Sketch3
100
AcDbCircle
 10
-51.96199294027193
 20
40.42633494109486
 30
0.0
 40
0.1999999999999981
210
0.0
220
1.0
230
0.0
100
AcDbArc
 50
216.0369180384796
 51
0.0
  0
ARC
  5
1D5
330
70
100
AcDbEntity
  8
wc rolletjes construction kit v13_Sketch3
100
AcDbCircle
 10
-51.9619929402719
 20
47.81147232828727
 30
0.0
 40
0.1999999999999673
210
0.0
220
1.0
230
0.0
100
AcDbArc
 50
0.0
 51
34.35588446142295
  0
ARC
  5
1D6
330
70
100
AcDbEntity
  8
wc rolletjes construction kit v13_Sketch3
100
AcDbCircle
 10
-51.96199294027192
 20
48.60355895451345
 30
0.0
 40
0.199999999999993
210
0.0
220
1.0
230
0.0
100
AcDbArc
 50
214.3558844614155
 51
0.0
  0
LINE
  5
1D7
330
70
100
AcDbEntity
  8
wc rolletjes construction kit v13_Sketch3
100
AcDbLine
 10
51.79688328898401
 20
0.0
 30
47.92433863438249
 11
53.17282176646223
 21
0.0
 31
49.93716894725189
  0
LINE
  5
1D8
330
70
100
AcDbEntity
  8
wc rolletjes construction kit v13_Sketch3
100
AcDbLine
 10
53.17282176646223
 20
0.0
 30
49.93716894725189
 11
53.1338940728058
 21
0.0
 31
49.96350589215047
  0
LINE
  5
1D9
330
70
100
AcDbEntity
  8
wc rolletjes construction kit v13_Sketch3
100
AcDbLine
 10
53.1338940728058
 20
0.0
 30
49.96350589215047
 11
52.12710259155985
 21
0.0
 31
48.49069264841823
  0
LINE
  5
1DA
330
70
100
AcDbEntity
  8
wc rolletjes construction kit v13_Sketch3
100
AcDbLine
 10
51.76199294027193
 20
0.0
 30
47.81147232828727
 11
51.76199294027194
 21
0.0
 31
40.61059315155315
  0
LINE
  5
1DB
330
70
100
AcDbEntity
  8
wc rolletjes construction kit v13_Sketch3
100
AcDbLine
 10
51.76199294027195
 20
0.0
 30
28.6723258358168
 11
54.76199294027225
 21
0.0
 31
28.6707802700019
  0
LINE
  5
1DC
330
70
100
AcDbEntity
  8
wc rolletjes construction kit v13_Sketch3
100
AcDbLine
 10
45.51194900423142
 20
0.0
 30
53.29364362689751
 11
45.51194900422845
 21
0.0
 31
61.32667260449933
  0
LINE
  5
1DD
330
70
100
AcDbEntity
  8
wc rolletjes construction kit v13_Sketch3
100
AcDbLine
 10
42.51194900423141
 20
0.0
 30
40.05067681129518
 11
42.51194900423141
 21
0.0
 31
33.39543290456642
  0
LINE
  5
1DE
330
70
100
AcDbEntity
  8
wc rolletjes construction kit v13_Sketch3
100
AcDbLine
 10
45.51194900423141
 20
0.0
 30
37.23471104505769
 11
45.51194900423142
 21
0.0
 31
44.10769640758771
  0
LINE
  5
1DF
330
70
100
AcDbEntity
  8
wc rolletjes construction kit v13_Sketch3
100
AcDbLine
 10
42.51194900423141
 20
0.0
 30
29.45245002319367
 11
45.51194900423169
 21
0.0
 31
29.45090445737876
  0
LINE
  5
1E0
330
70
100
AcDbEntity
  8
wc rolletjes construction kit v13_Sketch3
100
AcDbLine
 10
44.1165567913958
 20
0.0
 30
38.653414815324
 11
44.07765636209293
 21
0.0
 31
38.62703761683644
  0
ARC
  5
1E1
330
70
100
AcDbEntity
  8
wc rolletjes construction kit v13_Sketch3
100
AcDbCircle
 10
-42.7119490042314
 20
33.39543290456642
 30
0.0
 40
0.1999999999999944
210
0.0
220
1.0
230
0.0
100
AcDbArc
 50
213.8109605170345
 51
0.0
  0
LINE
  5
1E2
330
70
100
AcDbEntity
  8
wc rolletjes construction kit v13_Sketch3
100
AcDbLine
 10
45.14811859537363
 20
0.0
 30
45.17852494133981
 11
44.65158434970482
 21
0.0
 31
45.88764933457088
  0
ARC
  5
1E3
330
70
100
AcDbEntity
  8
wc rolletjes construction kit v13_Sketch3
100
AcDbCircle
 10
-45.31194900423141
 20
53.29364362689751
 30
0.0
 40
0.2000000000000028
210
0.0
220
1.0
230
0.0
100
AcDbArc
 50
180.0
 51
320.492905272824
  0
LINE
  5
1E4
330
70
100
AcDbEntity
  8
wc rolletjes construction kit v13_Sketch3
100
AcDbLine
 10
42.51194900423143
 20
0.0
 30
61.30819970947504
 11
42.51194900423139
 21
0.0
 31
49.38368314189027
  0
LINE
  5
1E5
330
70
100
AcDbEntity
  8
wc rolletjes construction kit v13_Sketch3
100
AcDbLine
 10
43.62377114095973
 20
0.0
 30
41.6439521721993
 11
43.39440862421332
 21
0.0
 31
41.80455365386042
  0
LINE
  5
1E6
330
70
100
AcDbEntity
  8
wc rolletjes construction kit v13_Sketch3
100
AcDbLine
 10
45.51194900423142
 20
0.0
 30
45.29324022861
 11
45.51194900423142
 21
0.0
 31
45.83740186954083
  0
LINE
  5
1E7
330
70
100
AcDbEntity
  8
wc rolletjes construction kit v13_Sketch3
100
AcDbLine
 10
42.55022138580524
 20
0.0
 30
40.16833809395944
 11
43.62377114095973
 21
0.0
 31
41.6439521721993
  0
LINE
  5
1E8
330
70
100
AcDbEntity
  8
wc rolletjes construction kit v13_Sketch3
100
AcDbLine
 10
43.92151459709005
 20
0.0
 30
54.5920121224712
 11
45.46625816707703
 21
0.0
 31
52.71856102299853
  0
ARC
  5
1E9
330
70
100
AcDbEntity
  8
wc rolletjes construction kit v13_Sketch3
100
AcDbCircle
 10
-42.71194900423135
 20
48.5915965156641
 30
0.0
 40
0.1999999999999673
210
0.0
220
1.0
230
0.0
100
AcDbArc
 50
0.0
 51
34.35588446142295
  0
LINE
  5
1EA
330
70
100
AcDbEntity
  8
wc rolletjes construction kit v13_Sketch3
100
AcDbLine
 10
42.51194900423139
 20
0.0
 30
41.20645912847169
 11
42.51194900423139
 21
0.0
 31
41.39071733893
  0
LINE
  5
1EB
330
70
100
AcDbEntity
  8
wc rolletjes construction kit v13_Sketch3
100
AcDbLine
 10
43.96040341324509
 20
0.0
 30
54.61840643962583
 11
43.92151459709005
 21
0.0
 31
54.5920121224712
  0
LINE
  5
1EC
330
70
100
AcDbEntity
  8
wc rolletjes construction kit v13_Sketch3
100
AcDbLine
 10
43.88385013676526
 20
0.0
 30
50.74363007952729
 11
42.8770586555193
 21
0.0
 31
49.27081683579506
  0
LINE
  5
1ED
330
70
100
AcDbEntity
  8
wc rolletjes construction kit v13_Sketch3
100
AcDbLine
 10
42.54683935294347
 20
0.0
 30
48.70446282175932
 11
43.92277783042169
 21
0.0
 31
50.71729313462872
  0
LINE
  5
1EE
330
70
100
AcDbEntity
  8
wc rolletjes construction kit v13_Sketch3
100
AcDbLine
 10
44.162416954731
 20
0.0
 30
59.61830201695661
 11
44.15318050721884
 21
0.0
 31
61.1183020169566
  0
LINE
  5
1EF
330
70
100
AcDbEntity
  8
wc rolletjes construction kit v13_Sketch3
100
AcDbLine
 10
43.39440862421332
 20
0.0
 30
41.80455365386042
 11
42.87367662265756
 21
0.0
 31
41.08879784580744
  0
LINE
  5
1F0
330
70
100
AcDbEntity
  8
wc rolletjes construction kit v13_Sketch3
100
AcDbLine
 10
45.51194900423142
 20
0.0
 30
46.33545175488055
 11
45.51194900423142
 21
0.0
 31
52.59132627042721
  0
LINE
  5
1F1
330
70
100
AcDbEntity
  8
wc rolletjes construction kit v13_Sketch3
100
AcDbLine
 10
45.51194900422845
 20
0.0
 30
61.32667260449933
 11
44.35194521269581
 21
0.0
 31
61.31952972840973
  0
ARC
  5
1F2
330
70
100
AcDbEntity
  8
wc rolletjes construction kit v13_Sketch3
100
AcDbCircle
 10
-43.67318429875214
 20
61.11534637709954
 30
0.0
 40
0.200000000000058
210
0.0
220
1.0
230
0.0
100
AcDbArc
 50
89.64719815219032
 51
179.6471981521272
  0
ARC
  5
1F3
330
70
100
AcDbEntity
  8
wc rolletjes construction kit v13_Sketch3
100
AcDbCircle
 10
-45.31194900423134
 20
44.10769640758769
 30
0.0
 40
0.2000000000000754
210
0.0
220
1.0
230
0.0
100
AcDbArc
 50
145.0000000000081
 51
179.9999999999959
  0
ARC
  5
1F4
330
70
100
AcDbEntity
  8
wc rolletjes construction kit v13_Sketch3
100
AcDbCircle
 10
-42.71194900423139
 20
41.20645912847169
 30
0.0
 40
0.1999999999999981
210
0.0
220
1.0
230
0.0
100
AcDbArc
 50
216.0369180384796
 51
0.0
  0
LINE
  5
1F5
330
70
100
AcDbEntity
  8
wc rolletjes construction kit v13_Sketch3
100
AcDbLine
 10
43.92277783042169
 20
0.0
 30
50.71729313462872
 11
43.88385013676526
 21
0.0
 31
50.74363007952729
  0
ARC
  5
1F6
330
70
100
AcDbEntity
  8
wc rolletjes construction kit v13_Sketch3
100
AcDbCircle
 10
-42.71194900423139
 20
49.38368314189027
 30
0.0
 40
0.199999999999993
210
0.0
220
1.0
230
0.0
100
AcDbArc
 50
214.3558844614155
 51
0.0
  0
LINE
  5
1F7
330
70
100
AcDbEntity
  8
wc rolletjes construction kit v13_Sketch3
100
AcDbLine
 10
45.15763984138566
 20
0.0
 30
53.16640887432635
 11
43.96040341324509
 21
0.0
 31
54.61840643962583
  0
ARC
  5
1F8
330
70
100
AcDbEntity
  8
wc rolletjes construction kit v13_Sketch3
100
AcDbCircle
 10
-44.35317671568388
 20
61.11953351994468
 30
0.0
 40
0.2000000000000083
210
0.0
220
1.0
230
0.0
100
AcDbArc
 50
359.6471981521903
 51
89.64719815219025
  0
LINE
  5
1F9
330
70
100
AcDbEntity
  8
wc rolletjes construction kit v13_Sketch3
100
AcDbLine
 10
42.51194900423139
 20
0.0
 30
48.5915965156641
 11
42.51194900423139
 21
0.0
 31
41.39071733893
  0
ARC
  5
1FA
330
70
100
AcDbEntity
  8
wc rolletjes construction kit v13_Sketch3
100
AcDbCircle
 10
-45.3119490042314
 20
52.5913262704272
 30
0.0
 40
0.2000000000000137
210
0.0
220
1.0
230
0.0
100
AcDbArc
 50
140.4929052727687
 51
179.9999999999979
  0
LINE
  5
1FB
330
70
100
AcDbEntity
  8
wc rolletjes construction kit v13_Sketch3
100
AcDbLine
 10
44.42222177730392
 20
0.0
 30
45.72704793239259
 11
45.47577941308921
 21
0.0
 31
44.22241169485793
  0
LINE
  5
1FC
330
70
100
AcDbEntity
  8
wc rolletjes construction kit v13_Sketch3
100
AcDbLine
 10
44.65158434970482
 20
0.0
 30
45.88764933457088
 11
44.42222177730392
 21
0.0
 31
45.72704793239259
  0
LINE
  5
1FD
330
70
100
AcDbEntity
  8
wc rolletjes construction kit v13_Sketch3
100
AcDbLine
 10
42.51194900423139
 20
0.0
 30
40.59219822097612
 11
42.51194900423139
 21
0.0
 31
40.59159651566413
  0
LINE
  5
1FE
330
70
100
AcDbEntity
  8
wc rolletjes construction kit v13_Sketch3
100
AcDbLine
 10
43.88241695473101
 20
0.0
 30
59.61657788008767
 11
44.162416954731
 21
0.0
 31
59.61830201695661
  0
LINE
  5
1FF
330
70
100
AcDbEntity
  8
wc rolletjes construction kit v13_Sketch3
100
AcDbLine
 10
43.87318050721724
 20
0.0
 30
61.11657788008784
 11
43.88241695473101
 21
0.0
 31
59.61657788008767
  0
ARC
  5
200
330
70
100
AcDbEntity
  8
wc rolletjes construction kit v13_Sketch3
100
AcDbCircle
 10
-45.31194900423143
 20
45.29324022861
 30
0.0
 40
0.1999999999999886
210
0.0
220
1.0
230
0.0
100
AcDbArc
 50
179.9999999999979
 51
325.0000000000024
  0
LINE
  5
201
330
70
100
AcDbEntity
  8
wc rolletjes construction kit v13_Sketch3
100
AcDbLine
 10
45.51194900423142
 20
0.0
 30
45.83740186954083
 11
45.51194900423142
 21
0.0
 31
46.33545175488055
  0
LINE
  5
202
330
70
100
AcDbEntity
  8
wc rolletjes construction kit v13_Sketch3
100
AcDbLine
 10
43.67195279576407
 20
0.0
 30
61.31534258556464
 11
42.51194900423143
 21
0.0
 31
61.30819970947504
  0
ARC
  5
203
330
70
100
AcDbEntity
  8
wc rolletjes construction kit v13_Sketch3
100
AcDbCircle
 10
-42.71194900423152
 20
40.05067681129514
 30
0.0
 40
0.2000000000001094
210
0.0
220
1.0
230
0.0
100
AcDbArc
 50
0.0000000000122133
 51
36.03691803847153
  0
LINE
  5
204
330
70
100
AcDbEntity
  8
wc rolletjes construction kit v13_Sketch3
100
AcDbLine
 10
45.51194900423169
 20
0.0
 30
29.45090445737876
 11
45.51194900423141
 21
0.0
 31
36.43386151427381
  0
LINE
  5
205
330
70
100
AcDbEntity
  8
wc rolletjes construction kit v13_Sketch3
100
AcDbLine
 10
43.94050479430388
 20
0.0
 30
34.78613752426032
 11
43.90308542985149
 21
0.0
 31
34.81457677818829
  0
ARC
  5
206
330
70
100
AcDbEntity
  8
wc rolletjes construction kit v13_Sketch3
100
AcDbCircle
 10
-42.71194900423139
 20
32.59228363636968
 30
0.0
 40
0.1999999999999815
210
0.0
220
1.0
230
0.0
100
AcDbArc
 50
0.0
 51
33.81096051703682
  0
LINE
  5
207
330
70
100
AcDbEntity
  8
wc rolletjes construction kit v13_Sketch3
100
AcDbLine
 10
45.14600191729376
 20
0.0
 30
37.12307966803083
 11
44.1165567913958
 21
0.0
 31
38.653414815324
  0
ARC
  5
208
330
70
100
AcDbEntity
  8
wc rolletjes construction kit v13_Sketch3
100
AcDbCircle
 10
-45.3119490042314
 20
37.23471104505769
 30
0.0
 40
0.2000000000000028
210
0.0
220
1.0
230
0.0
100
AcDbArc
 50
180.0
 51
326.0715703356652
  0
LINE
  5
209
330
70
100
AcDbEntity
  8
wc rolletjes construction kit v13_Sketch3
100
AcDbLine
 10
42.51194900423141
 20
0.0
 30
32.59228363636968
 11
42.51194900423141
 21
0.0
 31
29.45245002319367
  0
LINE
  5
20A
330
70
100
AcDbEntity
  8
wc rolletjes construction kit v13_Sketch3
100
AcDbLine
 10
42.54577339696607
 20
0.0
 30
32.70357455041929
 11
43.94050479430388
 21
0.0
 31
34.78613752426032
  0
LINE
  5
20B
330
70
100
AcDbEntity
  8
wc rolletjes construction kit v13_Sketch3
100
AcDbLine
 10
44.07765636209293
 20
0.0
 30
38.62703761683644
 11
45.47789609116906
 21
0.0
 31
36.54549289130066
  0
LINE
  5
20C
330
70
100
AcDbEntity
  8
wc rolletjes construction kit v13_Sketch3
100
AcDbLine
 10
43.90308542985149
 20
0.0
 30
34.81457677818829
 11
42.87812461149673
 21
0.0
 31
33.28414199051682
  0
ARC
  5
20D
330
70
100
AcDbEntity
  8
wc rolletjes construction kit v13_Sketch3
100
AcDbCircle
 10
-45.31194900423142
 20
36.43386151427381
 30
0.0
 40
0.1999999999999962
210
0.0
220
1.0
230
0.0
100
AcDbArc
 50
146.071570335664
 51
180.0
  0
ENDSEC
  0
SECTION
  2
OBJECTS
  0
DICTIONARY
  5
C
330
0
100
AcDbDictionary
281
     1
  3
ACAD_COLOR
350
63
  3
ACAD_DETAILVIEWSTYLE
350
6A
  3
ACAD_GROUP
350
D
  3
ACAD_LAYOUT
350
62
  3
ACAD_MATERIAL
350
10
  3
ACAD_MLEADERSTYLE
350
66
  3
ACAD_MLINESTYLE
350
5F
  3
ACAD_PLOTSETTINGS
350
61
  3
ACAD_PLOTSTYLENAME
350
E
  3
ACAD_SCALELIST
350
42
  3
ACAD_SECTIONVIEWSTYLE
350
68
  3
ACAD_TABLESTYLE
350
64
  3
ACAD_VISUALSTYLE
350
29
  3
ACDB_RECOMPOSE_DATA
350
216
  3
AcDbVariableDictionary
350
20E
  0
DICTIONARY
  5
63
102
{ACAD_REACTORS
330
C
102
}
330
C
100
AcDbDictionary
281
     1
  0
DICTIONARY
  5
6A
102
{ACAD_REACTORS
330
C
102
}
330
C
100
AcDbDictionary
281
     1
  3
Imperial24
350
6B
  0
DICTIONARY
  5
D
102
{ACAD_REACTORS
330
C
102
}
330
C
100
AcDbDictionary
281
     1
  0
DICTIONARY
  5
62
102
{ACAD_REACTORS
330
C
102
}
330
C
100
AcDbDictionary
281
     1
  3
Layout1
350
6F
  3
Layout2
350
77
  3
Model
350
73
  0
DICTIONARY
  5
10
102
{ACAD_REACTORS
330
C
102
}
330
C
100
AcDbDictionary
281
     1
  3
ByBlock
350
19
  3
ByLayer
350
11
  3
Global
350
21
  0
DICTIONARY
  5
66
102
{ACAD_REACTORS
330
C
102
}
330
C
100
AcDbDictionary
281
     1
  3
Standard
350
67
  0
DICTIONARY
  5
5F
102
{ACAD_REACTORS
330
C
102
}
330
C
100
AcDbDictionary
281
     1
  3
Standard
350
60
  0
DICTIONARY
  5
61
102
{ACAD_REACTORS
330
C
102
}
330
C
100
AcDbDictionary
281
     1
  0
ACDBDICTIONARYWDFLT
  5
E
102
{ACAD_REACTORS
330
C
102
}
330
C
100
AcDbDictionary
281
     1
  3
Normal
350
F
100
AcDbDictionaryWithDefault
340
F
  0
DICTIONARY
  5
42
102
{ACAD_REACTORS
330
C
102
}
330
C
100
AcDbDictionary
281
     1
  3
A0
350
43
  3
A1
350
44
  3
A2
350
45
  3
A3
350
46
  3
A4
350
47
  3
A5
350
48
  3
A6
350
49
  3
A7
350
4A
  3
A8
350
4B
  3
A9
350
4C
  3
B0
350
4D
  3
B1
350
4E
  3
B2
350
4F
  3
B3
350
50
  3
B4
350
51
  3
B5
350
52
  3
B6
350
53
  0
DICTIONARY
  5
68
102
{ACAD_REACTORS
330
C
102
}
330
C
100
AcDbDictionary
281
     1
  3
Imperial24
350
69
  0
DICTIONARY
  5
64
102
{ACAD_REACTORS
330
C
102
}
330
C
100
AcDbDictionary
281
     1
  3
Standard
350
65
  0
DICTIONARY
  5
29
102
{ACAD_REACTORS
330
C
102
}
330
C
100
AcDbDictionary
281
     1
  3
2dWireframe
350
2F
  3
Basic
350
2E
  3
Brighten
350
35
  3
ColorChange
350
39
  3
Conceptual
350
32
  3
Dim
350
34
  3
EdgeColorOff
350
41
  3
Facepattern
350
38
  3
Flat
350
2A
  3
FlatWithEdges
350
2B
  3
Gouraud
350
2C
  3
GouraudWithEdges
350
2D
  3
Hidden
350
31
  3
JitterOff
350
3F
  3
Linepattern
350
37
  3
OverhangOff
350
40
  3
Realistic
350
33
  3
Shaded
350
3E
  3
Shaded with edges
350
3D
  3
Shades of Gray
350
3A
  3
Sketchy
350
3B
  3
Thicken
350
36
  3
Wireframe
350
30
  3
X-Ray
350
3C
  0
XRECORD
  5
216
102
{ACAD_REACTORS
330
C
102
}
330
C
100
AcDbXrecord
280
     1
 90
        1
330
65
  0
DICTIONARY
  5
20E
102
{ACAD_REACTORS
330
C
102
}
330
C
100
AcDbDictionary
281
     1
  3
CANNOSCALE
350
213
  3
CMLEADERSTYLE
350
210
  3
CTABLESTYLE
350
20F
  3
CVIEWDETAILSTYLE
350
211
  3
CVIEWSECTIONSTYLE
350
212
  0
ACDBDETAILVIEWSTYLE
  5
6B
102
{ACAD_XDICTIONARY
360
219
102
}
102
{ACAD_REACTORS
330
6A
102
}
330
6A
100
AcDbModelDocViewStyle
 70
     0
  3
Imperial24
290
     0
100
AcDbDetailViewStyle
 70
     0
 71
     0
 90
        3
 71
     1
340
55
 62
   256
 40
0.24
340
0
 62
   256
 40
0.24
300

 40
0.36
280
     3
 71
     2
340
5D
 90
       25
 62
   256
 71
     3
340
55
 62
   256
 40
0.24
 90
        1
 40
0.75
 90
        1
300
%<\AcVar ViewType \f "%tc1">% %<\AcVar ViewDetailId>%\PSCALE %<\AcVar ViewScale \f "%sn">%
 71
     4
340
5D
 90
       25
 62
   256
340
5D
 90
       25
 62
   256
280
     0
  0
LAYOUT
  5
6F
102
{ACAD_REACTORS
330
62
102
}
330
62
100
AcDbPlotSettings
  1

  2

  4

  6

 40
0.0
 41
0.0
 42
0.0
 43
0.0
 44
0.0
 45
0.0
 46
0.0
 47
0.0
 48
0.0
 49
0.0
140
0.0
141
0.0
142
1.0
143
1.0
 70
   688
 72
     0
 73
     0
 74
     5
  7

 75
    16
147
1.0
 76
     0
 77
     2
 78
   300
148
0.0
149
0.0
100
AcDbLayout
  1
Layout1
 70
     1
 71
     1
 10
0.0
 20
0.0
 11
12.0
 21
9.0
 12
0.0
 22
0.0
 32
0.0
 14
0.0
 24
0.0
 34
0.0
 15
0.0
 25
0.0
 35
0.0
146
0.0
 13
0.0
 23
0.0
 33
0.0
 16
1.0
 26
0.0
 36
0.0
 17
0.0
 27
1.0
 37
0.0
 76
     0
330
6C
  0
LAYOUT
  5
77
102
{ACAD_REACTORS
330
62
102
}
330
62
100
AcDbPlotSettings
  1

  2

  4

  6

 40
0.0
 41
0.0
 42
0.0
 43
0.0
 44
0.0
 45
0.0
 46
0.0
 47
0.0
 48
0.0
 49
0.0
140
0.0
141
0.0
142
1.0
143
1.0
 70
   688
 72
     0
 73
     0
 74
     5
  7

 75
    16
147
1.0
 76
     0
 77
     2
 78
   300
148
0.0
149
0.0
100
AcDbLayout
  1
Layout2
 70
     1
 71
     2
 10
0.0
 20
0.0
 11
12.0
 21
9.0
 12
0.0
 22
0.0
 32
0.0
 14
0.0
 24
0.0
 34
0.0
 15
0.0
 25
0.0
 35
0.0
146
0.0
 13
0.0
 23
0.0
 33
0.0
 16
1.0
 26
0.0
 36
0.0
 17
0.0
 27
1.0
 37
0.0
 76
     0
330
74
  0
LAYOUT
  5
73
102
{ACAD_REACTORS
330
62
102
}
330
62
100
AcDbPlotSettings
  1

  2

  4

  6

 40
0.0
 41
0.0
 42
0.0
 43
0.0
 44
0.0
 45
0.0
 46
0.0
 47
0.0
 48
0.0
 49
0.0
140
0.0
141
0.0
142
1.0
143
1.0
 70
  1712
 72
     0
 73
     0
 74
     0
  7

 75
     0
147
1.0
 76
     0
 77
     2
 78
   300
148
0.0
149
0.0
100
AcDbLayout
  1
Model
 70
     1
 71
     0
 10
0.0
 20
0.0
 11
12.0
 21
9.0
 12
0.0
 22
0.0
 32
0.0
 14
0.0
 24
0.0
 34
0.0
 15
0.0
 25
0.0
 35
0.0
146
0.0
 13
0.0
 23
0.0
 33
0.0
 16
1.0
 26
0.0
 36
0.0
 17
0.0
 27
1.0
 37
0.0
 76
     0
330
70
  0
MATERIAL
  5
19
102
{ACAD_XDICTIONARY
360
1A
102
}
102
{ACAD_REACTORS
330
10
102
}
330
10
100
AcDbMaterial
  1
ByBlock
 72
     0
 43
0.0208333333333333
 43
0.0
 43
0.0
 43
0.0
 43
0.0
 43
0.0208333333333333
 43
0.0
 43
0.0
 43
0.0
 43
0.0
 43
1.0
 43
0.0
 43
0.0
 43
0.0
 43
0.0
 43
1.0
 77
     0
 47
0.0208333333333333
 47
0.0
 47
0.0
 47
0.0
 47
0.0
 47
0.0208333333333333
 47
0.0
 47
0.0
 47
0.0
 47
0.0
 47
1.0
 47
0.0
 47
0.0
 47
0.0
 47
0.0
 47
1.0
171
     0
 49
0.0208333333333333
 49
0.0
 49
0.0
 49
0.0
 49
0.0
 49
0.0208333333333333
 49
0.0
 49
0.0
 49
0.0
 49
0.0
 49
1.0
 49
0.0
 49
0.0
 49
0.0
 49
0.0
 49
1.0
175
     0
142
0.0208333333333333
142
0.0
142
0.0
142
0.0
142
0.0
142
0.0208333333333333
142
0.0
142
0.0
142
0.0
142
0.0
142
1.0
142
0.0
142
0.0
142
0.0
142
0.0
142
1.0
179
     0
144
0.0208333333333333
144
0.0
144
0.0
144
0.0
144
0.0
144
0.0208333333333333
144
0.0
144
0.0
144
0.0
144
0.0
144
1.0
144
0.0
144
0.0
144
0.0
144
0.0
144
1.0
147
0.0208333333333333
147
0.0
147
0.0
147
0.0
147
0.0
147
0.0208333333333333
147
0.0
147
0.0
147
0.0
147
0.0
147
1.0
147
0.0
147
0.0
147
0.0
147
0.0
147
1.0
  0
MATERIAL
  5
11
102
{ACAD_XDICTIONARY
360
12
102
}
102
{ACAD_REACTORS
330
10
102
}
330
10
100
AcDbMaterial
  1
ByLayer
 72
     0
 43
0.0208333333333333
 43
0.0
 43
0.0
 43
0.0
 43
0.0
 43
0.0208333333333333
 43
0.0
 43
0.0
 43
0.0
 43
0.0
 43
1.0
 43
0.0
 43
0.0
 43
0.0
 43
0.0
 43
1.0
 77
     0
 47
0.0208333333333333
 47
0.0
 47
0.0
 47
0.0
 47
0.0
 47
0.0208333333333333
 47
0.0
 47
0.0
 47
0.0
 47
0.0
 47
1.0
 47
0.0
 47
0.0
 47
0.0
 47
0.0
 47
1.0
171
     0
 49
0.0208333333333333
 49
0.0
 49
0.0
 49
0.0
 49
0.0
 49
0.0208333333333333
 49
0.0
 49
0.0
 49
0.0
 49
0.0
 49
1.0
 49
0.0
 49
0.0
 49
0.0
 49
0.0
 49
1.0
175
     0
142
0.0208333333333333
142
0.0
142
0.0
142
0.0
142
0.0
142
0.0208333333333333
142
0.0
142
0.0
142
0.0
142
0.0
142
1.0
142
0.0
142
0.0
142
0.0
142
0.0
142
1.0
179
     0
144
0.0208333333333333
144
0.0
144
0.0
144
0.0
144
0.0
144
0.0208333333333333
144
0.0
144
0.0
144
0.0
144
0.0
144
1.0
144
0.0
144
0.0
144
0.0
144
0.0
144
1.0
147
0.0208333333333333
147
0.0
147
0.0
147
0.0
147
0.0
147
0.0208333333333333
147
0.0
147
0.0
147
0.0
147
0.0
147
1.0
147
0.0
147
0.0
147
0.0
147
0.0
147
1.0
  0
MATERIAL
  5
21
102
{ACAD_XDICTIONARY
360
22
102
}
102
{ACAD_REACTORS
330
10
102
}
330
10
100
AcDbMaterial
  1
Global
 72
     0
 43
0.0208333333333333
 43
0.0
 43
0.0
 43
0.0
 43
0.0
 43
0.0208333333333333
 43
0.0
 43
0.0
 43
0.0
 43
0.0
 43
1.0
 43
0.0
 43
0.0
 43
0.0
 43
0.0
 43
1.0
 77
     0
 47
0.0208333333333333
 47
0.0
 47
0.0
 47
0.0
 47
0.0
 47
0.0208333333333333
 47
0.0
 47
0.0
 47
0.0
 47
0.0
 47
1.0
 47
0.0
 47
0.0
 47
0.0
 47
0.0
 47
1.0
171
     0
 49
0.0208333333333333
 49
0.0
 49
0.0
 49
0.0
 49
0.0
 49
0.0208333333333333
 49
0.0
 49
0.0
 49
0.0
 49
0.0
 49
1.0
 49
0.0
 49
0.0
 49
0.0
 49
0.0
 49
1.0
175
     0
142
0.0208333333333333
142
0.0
142
0.0
142
0.0
142
0.0
142
0.0208333333333333
142
0.0
142
0.0
142
0.0
142
0.0
142
1.0
142
0.0
142
0.0
142
0.0
142
0.0
142
1.0
179
     0
144
0.0208333333333333
144
0.0
144
0.0
144
0.0
144
0.0
144
0.0208333333333333
144
0.0
144
0.0
144
0.0
144
0.0
144
1.0
144
0.0
144
0.0
144
0.0
144
0.0
144
1.0
147
0.0208333333333333
147
0.0
147
0.0
147
0.0
147
0.0
147
0.0208333333333333
147
0.0
147
0.0
147
0.0
147
0.0
147
1.0
147
0.0
147
0.0
147
0.0
147
0.0
147
1.0
  0
MLEADERSTYLE
  5
67
102
{ACAD_REACTORS
330
66
102
}
330
66
100
AcDbMLeaderStyle
179
     2
170
     2
171
     1
172
     0
 90
        2
 40
0.0
 41
0.0
173
     1
 91
-1056964608
340
5B
 92
       -2
290
     1
 42
0.09
291
     1
 43
0.36
  3
Standard
 44
0.18
300

342
55
174
     1
178
     6
175
     1
176
     0
 93
-1056964608
 45
0.18
292
     0
297
     0
 46
0.18
 94
-1056964608
 47
1.0
 49
1.0
140
1.0
293
     1
141
0.0
294
     1
177
     0
142
1.0
295
     0
296
     0
143
0.125
271
     0
272
     9
273
     9
298
     1
  0
MLINESTYLE
  5
60
102
{ACAD_REACTORS
330
5F
102
}
330
5F
100
AcDbMlineStyle
  2
STANDARD
 70
     0
  3

 62
   256
 51
90.0
 52
90.0
 71
     2
 49
0.5
 62
   256
  6
BYLAYER
 49
-0.5
 62
   256
  6
BYLAYER
  0
ACDBPLACEHOLDER
  5
F
102
{ACAD_REACTORS
330
E
102
}
330
E
  0
SCALE
  5
43
102
{ACAD_REACTORS
330
42
102
}
330
42
100
AcDbScale
 70
     0
300
1:1
140
1.0
141
1.0
290
     1
  0
SCALE
  5
44
102
{ACAD_REACTORS
330
42
102
}
330
42
100
AcDbScale
 70
     0
300
1/128" = 1'-0"
140
0.0078125
141
12.0
290
     0
  0
SCALE
  5
45
102
{ACAD_REACTORS
330
42
102
}
330
42
100
AcDbScale
 70
     0
300
1/64" = 1'-0"
140
0.015625
141
12.0
290
     0
  0
SCALE
  5
46
102
{ACAD_REACTORS
330
42
102
}
330
42
100
AcDbScale
 70
     0
300
1/32" = 1'-0"
140
0.03125
141
12.0
290
     0
  0
SCALE
  5
47
102
{ACAD_REACTORS
330
42
102
}
330
42
100
AcDbScale
 70
     0
300
1/16" = 1'-0"
140
0.0625
141
12.0
290
     0
  0
SCALE
  5
48
102
{ACAD_REACTORS
330
42
102
}
330
42
100
AcDbScale
 70
     0
300
3/32" = 1'-0"
140
0.09375
141
12.0
290
     0
  0
SCALE
  5
49
102
{ACAD_REACTORS
330
42
102
}
330
42
100
AcDbScale
 70
     0
300
1/8" = 1'-0"
140
0.125
141
12.0
290
     0
  0
SCALE
  5
4A
102
{ACAD_REACTORS
330
42
102
}
330
42
100
AcDbScale
 70
     0
300
3/16" = 1'-0"
140
0.1875
141
12.0
290
     0
  0
SCALE
  5
4B
102
{ACAD_REACTORS
330
42
102
}
330
42
100
AcDbScale
 70
     0
300
1/4" = 1'-0"
140
0.25
141
12.0
290
     0
  0
SCALE
  5
4C
102
{ACAD_REACTORS
330
42
102
}
330
42
100
AcDbScale
 70
     0
300
3/8" = 1'-0"
140
0.375
141
12.0
290
     0
  0
SCALE
  5
4D
102
{ACAD_REACTORS
330
42
102
}
330
42
100
AcDbScale
 70
     0
300
1/2" = 1'-0"
140
0.5
141
12.0
290
     0
  0
SCALE
  5
4E
102
{ACAD_REACTORS
330
42
102
}
330
42
100
AcDbScale
 70
     0
300
3/4" = 1'-0"
140
0.75
141
12.0
290
     0
  0
SCALE
  5
4F
102
{ACAD_REACTORS
330
42
102
}
330
42
100
AcDbScale
 70
     0
300
1" = 1'-0"
140
1.0
141
12.0
290
     0
  0
SCALE
  5
50
102
{ACAD_REACTORS
330
42
102
}
330
42
100
AcDbScale
 70
     0
300
1-1/2" = 1'-0"
140
1.5
141
12.0
290
     0
  0
SCALE
  5
51
102
{ACAD_REACTORS
330
42
102
}
330
42
100
AcDbScale
 70
     0
300
3" = 1'-0"
140
3.0
141
12.0
290
     0
  0
SCALE
  5
52
102
{ACAD_REACTORS
330
42
102
}
330
42
100
AcDbScale
 70
     0
300
6" = 1'-0"
140
6.0
141
12.0
290
     0
  0
SCALE
  5
53
102
{ACAD_REACTORS
330
42
102
}
330
42
100
AcDbScale
 70
     0
300
1'-0" = 1'-0"
140
12.0
141
12.0
290
     0
  0
ACDBSECTIONVIEWSTYLE
  5
69
102
{ACAD_XDICTIONARY
360
217
102
}
102
{ACAD_REACTORS
330
68
102
}
330
68
100
AcDbModelDocViewStyle
 70
     0
  3
Imperial24
290
     0
100
AcDbSectionViewStyle
 70
     0
 71
     0
 90
       78
 71
     1
340
55
 62
   256
 40
0.24
340
0
340
0
 62
   256
 40
0.24
300
I, O, Q, S, X, Z
 40
0.48
 90
        3
 40
0.18
 90
        1
 71
     2
340
5D
 90
       25
 62
   256
340
5D
 90
       50
 62
   256
 40
0.24
 40
0.0
 40
0.24
 71
     3
340
55
 62
   256
 40
0.24
 90
        1
 40
0.75
 90
        1
300
%<\AcVar ViewType \f "%tc1">% %<\AcVar ViewSectionStartId>%-%<\AcVar ViewSectionEndId>%\PSCALE %<\AcVar ViewScale \f "%sn">%
 71
     4
 62
   256
 62
   257
300
ANSI31
 40
1.0
 90
        0
290
     0
290
     0
 90
        6
 40
0.0
 40
1.570796326794896
 40
0.2617993877991494
 40
1.308996938995747
 40
-0.2617993877991494
 40
1.832595714594046
  0
TABLESTYLE
  5
65
102
{ACAD_XDICTIONARY
360
214
102
}
102
{ACAD_REACTORS
330
64
102
}
330
64
100
AcDbTableStyle
280
     0
  3
Standard
 70
     0
 71
     0
 40
0.06
 41
0.06
280
     0
281
     0
  7
Standard
140
0.18
170
     2
 62
     0
 63
     7
283
     0
 90
      512
 91
        0
  1

274
    -2
284
     1
 64
     0
275
    -2
285
     1
 65
     0
276
    -2
286
     1
 66
     0
277
    -2
287
     1
 67
     0
278
    -2
288
     1
 68
     0
279
    -2
289
     1
 69
     0
  7
Standard
140
0.25
170
     5
 62
     0
 63
     7
283
     0
 90
      512
 91
        0
  1

274
    -2
284
     1
 64
     0
275
    -2
285
     1
 65
     0
276
    -2
286
     1
 66
     0
277
    -2
287
     1
 67
     0
278
    -2
288
     1
 68
     0
279
    -2
289
     1
 69
     0
  7
Standard
140
0.18
170
     5
 62
     0
 63
     7
283
     0
 90
      512
 91
        0
  1

274
    -2
284
     1
 64
     0
275
    -2
285
     1
 65
     0
276
    -2
286
     1
 66
     0
277
    -2
287
     1
 67
     0
278
    -2
288
     1
 68
     0
279
    -2
289
     1
 69
     0
  0
VISUALSTYLE
  5
2F
102
{ACAD_REACTORS
330
29
102
}
330
29
100
AcDbVisualStyle
  2
2dWireframe
 70
     4
177
     3
291
     0
 70
    58
 90
        0
176
     1
 90
        2
176
     1
 90
        0
176
     1
 90
        0
176
     1
 40
0.6
176
     1
 40
30.0
176
     1
 62
     7
420
 16777215
176
     1
 90
        1
176
     1
 90
        4
176
     1
 62
     7
176
     1
 62
   257
176
     1
 90
        1
176
     1
 90
        1
176
     1
 40
1.0
176
     1
 90
        0
176
     1
 62
   257
176
     1
 40
1.0
176
     1
 90
        1
176
     1
 90
        6
176
     1
 90
        2
176
     1
 62
     7
176
     1
 90
        5
176
     1
 90
        0
176
     1
 90
        0
176
     1
290
     0
176
     1
 90
        1
176
     1
 40
0.0
176
     1
 90
        0
176
     1
290
     1
176
     1
290
     1
176
     1
290
     0
176
     1
290
     0
176
     1
290
     0
176
     1
290
     0
176
     1
290
     0
176
     1
290
     0
176
     1
290
     0
176
     1
 90
       50
176
     1
 40
0.0
176
     1
 40
1.0
176
     1
 90
        0
176
     1
 62
    18
420
        0
176
     1
 90
       50
176
     1
 90
        3
176
     1
 62
     5
420
      255
176
     1
290
     0
176
     1
 90
       50
176
     1
 90
       50
176
     1
 90
       50
176
     1
290
     0
176
     1
 90
       50
176
     1
 62
   256
176
     0
 40
1.0
176
     0
 90
        2
176
     1
  1
strokes_ogs.tif
176
     1
290
     0
176
     1
 40
1.0
176
     1
 40
1.0
176
     1
1001
ACAD
1000
AcDbSavedByObjectVersion
1070
     0
  0
VISUALSTYLE
  5
2E
102
{ACAD_REACTORS
330
29
102
}
330
29
100
AcDbVisualStyle
  2
Basic
 70
     7
177
     3
291
     1
 70
    58
 90
        1
176
     1
 90
        0
176
     1
 90
        1
176
     1
 90
        0
176
     1
 40
0.6
176
     1
 40
30.0
176
     1
 62
     7
420
 16777215
176
     1
 90
        0
176
     1
 90
        4
176
     1
 62
     7
176
     1
 62
   257
176
     1
 90
        1
176
     1
 90
        1
176
     1
 40
1.0
176
     1
 90
        8
176
     1
 62
     7
176
     1
 40
1.0
176
     1
 90
        1
176
     1
 90
        6
176
     1
 90
        2
176
     1
 62
     7
176
     1
 90
        5
176
     1
 90
        0
176
     1
 90
        0
176
     1
290
     0
176
     1
 90
        1
176
     1
 40
0.0
176
     1
 90
        0
176
     1
290
     0
176
     1
290
     1
176
     1
290
     1
176
     1
290
     0
176
     1
290
     0
176
     1
290
     0
176
     1
290
     0
176
     1
290
     0
176
     1
290
     0
176
     1
 90
       50
176
     1
 40
0.0
176
     1
 40
1.0
176
     1
 90
        0
176
     1
 62
    18
420
        0
176
     1
 90
       50
176
     1
 90
        3
176
     1
 62
     5
420
      255
176
     1
290
     0
176
     1
 90
       50
176
     1
 90
       50
176
     1
 90
       50
176
     1
290
     0
176
     1
 90
       50
176
     1
 62
   256
176
     0
 40
1.0
176
     0
 90
        2
176
     1
  1
strokes_ogs.tif
176
     1
290
     0
176
     1
 40
1.0
176
     1
 40
1.0
176
     1
1001
ACAD
1000
AcDbSavedByObjectVersion
1070
     0
  0
VISUALSTYLE
  5
35
102
{ACAD_REACTORS
330
29
102
}
330
29
100
AcDbVisualStyle
  2
Brighten
 70
    12
177
     3
291
     1
 70
    58
 90
        2
176
     1
 90
        2
176
     1
 90
        0
176
     1
 90
        0
176
     1
 40
0.6
176
     1
 40
30.0
176
     1
 62
     7
420
 16777215
176
     1
 90
        1
176
     1
 90
        4
176
     1
 62
     7
176
     1
 62
   257
176
     1
 90
        1
176
     1
 90
        1
176
     1
 40
1.0
176
     1
 90
        8
176
     1
 62
     7
176
     1
 40
1.0
176
     1
 90
        1
176
     1
 90
        6
176
     1
 90
        2
176
     1
 62
     7
176
     1
 90
        5
176
     1
 90
        0
176
     1
 90
        0
176
     1
290
     0
176
     1
 90
        1
176
     1
 40
50.0
176
     1
 90
        0
176
     1
290
     0
176
     1
290
     1
176
     1
290
     1
176
     1
290
     0
176
     1
290
     0
176
     1
290
     0
176
     1
290
     0
176
     1
290
     0
176
     1
290
     0
176
     1
 90
       50
176
     1
 40
0.0
176
     1
 40
1.0
176
     1
 90
        0
176
     1
 62
    18
420
        0
176
     1
 90
       50
176
     1
 90
        3
176
     1
 62
     5
420
      255
176
     1
290
     0
176
     1
 90
       50
176
     1
 90
       50
176
     1
 90
       50
176
     1
290
     0
176
     1
 90
       50
176
     1
 62
   256
176
     0
 40
1.0
176
     0
 90
        2
176
     1
  1
strokes_ogs.tif
176
     1
290
     0
176
     1
 40
1.0
176
     1
 40
1.0
176
     1
1001
ACAD
1000
AcDbSavedByObjectVersion
1070
     0
  0
VISUALSTYLE
  5
39
102
{ACAD_REACTORS
330
29
102
}
330
29
100
AcDbVisualStyle
  2
ColorChange
 70
    16
177
     3
291
     1
 70
    58
 90
        2
176
     1
 90
        2
176
     1
 90
        3
176
     1
 90
        0
176
     1
 40
0.6
176
     1
 40
30.0
176
     1
 62
     8
420
  8421504
176
     1
 90
        1
176
     1
 90
        4
176
     1
 62
     7
176
     1
 62
   257
176
     1
 90
        1
176
     1
 90
        1
176
     1
 40
1.0
176
     1
 90
        8
176
     1
 62
     8
420
  8421504
176
     1
 40
1.0
176
     1
 90
        1
176
     1
 90
        6
176
     1
 90
        2
176
     1
 62
     7
176
     1
 90
        5
176
     1
 90
        0
176
     1
 90
        0
176
     1
290
     0
176
     1
 90
        1
176
     1
 40
0.0
176
     1
 90
        0
176
     1
290
     0
176
     1
290
     1
176
     1
290
     1
176
     1
290
     0
176
     1
290
     0
176
     1
290
     0
176
     1
290
     0
176
     1
290
     0
176
     1
290
     0
176
     1
 90
       50
176
     1
 40
0.0
176
     1
 40
1.0
176
     1
 90
        0
176
     1
 62
    18
420
        0
176
     1
 90
       50
176
     1
 90
        3
176
     1
 62
     5
420
      255
176
     1
290
     0
176
     1
 90
       50
176
     1
 90
       50
176
     1
 90
       50
176
     1
290
     0
176
     1
 90
       50
176
     1
 62
   256
176
     0
 40
1.0
176
     0
 90
        2
176
     1
  1
strokes_ogs.tif
176
     1
290
     0
176
     1
 40
1.0
176
     1
 40
1.0
176
     1
1001
ACAD
1000
AcDbSavedByObjectVersion
1070
     0
  0
VISUALSTYLE
  5
32
102
{ACAD_REACTORS
330
29
102
}
330
29
100
AcDbVisualStyle
  2
Conceptual
 70
     9
177
     3
291
     0
 70
    58
 90
        3
176
     1
 90
        2
176
     1
 90
        0
176
     1
 90
        0
176
     1
 40
0.6
176
     1
 40
30.0
176
     1
 62
     7
420
 16777215
176
     1
 90
        2
176
     1
 90
        2
176
     1
 62
     7
176
     1
 62
   257
176
     1
 90
        1
176
     1
 90
        1
176
     1
 40
179.0
176
     1
 90
        8
176
     1
 62
     7
176
     1
 40
1.0
176
     1
 90
        1
176
     1
 90
        6
176
     1
 90
        2
176
     1
 62
     7
176
     1
 90
        3
176
     1
 90
        0
176
     1
 90
        0
176
     1
290
     0
176
     1
 90
        1
176
     1
 40
0.0
176
     1
 90
        0
176
     1
290
     0
176
     1
290
     1
176
     1
290
     1
176
     1
290
     0
176
     1
290
     0
176
     1
290
     0
176
     1
290
     0
176
     1
290
     0
176
     1
290
     0
176
     1
 90
       50
176
     1
 40
0.0
176
     1
 40
1.0
176
     1
 90
        0
176
     1
 62
    18
420
        0
176
     1
 90
       50
176
     1
 90
        3
176
     1
 62
     5
420
      255
176
     1
290
     0
176
     1
 90
       50
176
     1
 90
       50
176
     1
 90
       50
176
     1
290
     0
176
     1
 90
       50
176
     1
 62
   256
176
     0
 40
1.0
176
     0
 90
        2
176
     1
  1
strokes_ogs.tif
176
     1
290
     0
176
     1
 40
1.0
176
     1
 40
1.0
176
     1
1001
ACAD
1000
AcDbSavedByObjectVersion
1070
     0
  0
VISUALSTYLE
  5
34
102
{ACAD_REACTORS
330
29
102
}
330
29
100
AcDbVisualStyle
  2
Dim
 70
    11
177
     3
291
     1
 70
    58
 90
        2
176
     1
 90
        2
176
     1
 90
        0
176
     1
 90
        0
176
     1
 40
0.6
176
     1
 40
30.0
176
     1
 62
     7
420
 16777215
176
     1
 90
        1
176
     1
 90
        4
176
     1
 62
     7
176
     1
 62
   257
176
     1
 90
        1
176
     1
 90
        1
176
     1
 40
1.0
176
     1
 90
        8
176
     1
 62
     7
176
     1
 40
1.0
176
     1
 90
        1
176
     1
 90
        6
176
     1
 90
        2
176
     1
 62
     7
176
     1
 90
        5
176
     1
 90
        0
176
     1
 90
        0
176
     1
290
     0
176
     1
 90
        1
176
     1
 40
-50.0
176
     1
 90
        0
176
     1
290
     0
176
     1
290
     1
176
     1
290
     1
176
     1
290
     0
176
     1
290
     0
176
     1
290
     0
176
     1
290
     0
176
     1
290
     0
176
     1
290
     0
176
     1
 90
       50
176
     1
 40
0.0
176
     1
 40
1.0
176
     1
 90
        0
176
     1
 62
    18
420
        0
176
     1
 90
       50
176
     1
 90
        3
176
     1
 62
     5
420
      255
176
     1
290
     0
176
     1
 90
       50
176
     1
 90
       50
176
     1
 90
       50
176
     1
290
     0
176
     1
 90
       50
176
     1
 62
   256
176
     0
 40
1.0
176
     0
 90
        2
176
     1
  1
strokes_ogs.tif
176
     1
290
     0
176
     1
 40
1.0
176
     1
 40
1.0
176
     1
1001
ACAD
1000
AcDbSavedByObjectVersion
1070
     0
  0
VISUALSTYLE
  5
41
102
{ACAD_REACTORS
330
29
102
}
330
29
100
AcDbVisualStyle
  2
EdgeColorOff
 70
    22
177
     3
291
     1
 70
    58
 90
        2
176
     0
 90
        2
176
     0
 90
        0
176
     0
 90
        0
176
     0
 40
0.6
176
     0
 40
30.0
176
     0
 62
     7
420
 16777215
176
     0
 90
        1
176
     0
 90
        4
176
     0
 62
     7
176
     0
 62
   257
176
     0
 90
        1
176
     0
 90
        1
176
     0
 40
1.0
176
     0
 90
        8
176
     2
 62
     7
176
     0
 40
1.0
176
     0
 90
        1
176
     0
 90
        6
176
     0
 90
        2
176
     0
 62
     7
176
     0
 90
        5
176
     0
 90
        0
176
     0
 90
        0
176
     0
290
     0
176
     0
 90
        1
176
     0
 40
0.0
176
     0
 90
        0
176
     0
290
     0
176
     0
290
     1
176
     0
290
     1
176
     0
290
     0
176
     0
290
     0
176
     0
290
     0
176
     0
290
     0
176
     0
290
     0
176
     0
290
     0
176
     0
 90
       50
176
     0
 40
0.0
176
     0
 40
1.0
176
     0
 90
        0
176
     0
 62
    18
420
        0
176
     0
 90
       50
176
     0
 90
        3
176
     0
 62
     5
420
      255
176
     0
290
     0
176
     0
 90
       50
176
     0
 90
       50
176
     0
 90
       50
176
     0
290
     0
176
     0
 90
       50
176
     0
 62
   256
176
     0
 40
1.0
176
     0
 90
        2
176
     0
  1
strokes_ogs.tif
176
     0
290
     0
176
     0
 40
1.0
176
     0
 40
1.0
176
     0
1001
ACAD
1000
AcDbSavedByObjectVersion
1070
     0
  0
VISUALSTYLE
  5
38
102
{ACAD_REACTORS
330
29
102
}
330
29
100
AcDbVisualStyle
  2
Facepattern
 70
    15
177
     3
291
     1
 70
    58
 90
        2
176
     1
 90
        2
176
     1
 90
        0
176
     1
 90
        0
176
     1
 40
0.6
176
     1
 40
30.0
176
     1
 62
     7
420
 16777215
176
     1
 90
        1
176
     1
 90
        4
176
     1
 62
     7
176
     1
 62
   257
176
     1
 90
        1
176
     1
 90
        1
176
     1
 40
1.0
176
     1
 90
        8
176
     1
 62
     7
176
     1
 40
1.0
176
     1
 90
        1
176
     1
 90
        6
176
     1
 90
        2
176
     1
 62
     7
176
     1
 90
        5
176
     1
 90
        0
176
     1
 90
        0
176
     1
290
     0
176
     1
 90
        1
176
     1
 40
0.0
176
     1
 90
        0
176
     1
290
     0
176
     1
290
     1
176
     1
290
     1
176
     1
290
     0
176
     1
290
     0
176
     1
290
     0
176
     1
290
     0
176
     1
290
     0
176
     1
290
     0
176
     1
 90
       50
176
     1
 40
0.0
176
     1
 40
1.0
176
     1
 90
        0
176
     1
 62
    18
420
        0
176
     1
 90
       50
176
     1
 90
        3
176
     1
 62
     5
420
      255
176
     1
290
     0
176
     1
 90
       50
176
     1
 90
       50
176
     1
 90
       50
176
     1
290
     0
176
     1
 90
       50
176
     1
 62
   256
176
     0
 40
1.0
176
     0
 90
        2
176
     1
  1
strokes_ogs.tif
176
     1
290
     0
176
     1
 40
1.0
176
     1
 40
1.0
176
     1
1001
ACAD
1000
AcDbSavedByObjectVersion
1070
     0
  0
VISUALSTYLE
  5
2A
102
{ACAD_REACTORS
330
29
102
}
330
29
100
AcDbVisualStyle
  2
Flat
 70
     0
177
     3
291
     1
 70
    58
 90
        2
176
     1
 90
        1
176
     1
 90
        1
176
     1
 90
        2
176
     1
 40
0.6
176
     1
 40
30.0
176
     1
 62
     7
420
 16777215
176
     1
 90
        0
176
     1
 90
        0
176
     1
 62
     7
176
     1
 62
   257
176
     1
 90
        1
176
     1
 90
        1
176
     1
 40
1.0
176
     1
 90
        8
176
     1
 62
     7
176
     1
 40
1.0
176
     1
 90
        1
176
     1
 90
        6
176
     1
 90
        2
176
     1
 62
     7
176
     1
 90
        5
176
     1
 90
        0
176
     1
 90
        0
176
     1
290
     0
176
     1
 90
       13
176
     1
 40
0.0
176
     1
 90
        0
176
     1
290
     0
176
     1
290
     1
176
     1
290
     1
176
     1
290
     0
176
     1
290
     0
176
     1
290
     0
176
     1
290
     0
176
     1
290
     0
176
     1
290
     0
176
     1
 90
       50
176
     1
 40
0.0
176
     1
 40
1.0
176
     1
 90
        0
176
     1
 62
    18
420
        0
176
     1
 90
       50
176
     1
 90
        3
176
     1
 62
     5
420
      255
176
     1
290
     0
176
     1
 90
       50
176
     1
 90
       50
176
     1
 90
       50
176
     1
290
     0
176
     1
 90
       50
176
     1
 62
   256
176
     0
 40
1.0
176
     0
 90
        2
176
     1
  1
strokes_ogs.tif
176
     1
290
     0
176
     1
 40
1.0
176
     1
 40
1.0
176
     1
1001
ACAD
1000
AcDbSavedByObjectVersion
1070
     0
  0
VISUALSTYLE
  5
2B
102
{ACAD_REACTORS
330
29
102
}
330
29
100
AcDbVisualStyle
  2
FlatWithEdges
 70
     1
177
     3
291
     1
 70
    58
 90
        2
176
     1
 90
        1
176
     1
 90
        1
176
     1
 90
        2
176
     1
 40
0.6
176
     1
 40
30.0
176
     1
 62
     7
420
 16777215
176
     1
 90
        1
176
     1
 90
        0
176
     1
 62
     7
176
     1
 62
   257
176
     1
 90
        1
176
     1
 90
        1
176
     1
 40
1.0
176
     1
 90
        0
176
     1
 62
   257
176
     1
 40
1.0
176
     1
 90
        1
176
     1
 90
        6
176
     1
 90
        2
176
     1
 62
     7
176
     1
 90
        5
176
     1
 90
        0
176
     1
 90
        0
176
     1
290
     0
176
     1
 90
       13
176
     1
 40
0.0
176
     1
 90
        0
176
     1
290
     0
176
     1
290
     1
176
     1
290
     1
176
     1
290
     0
176
     1
290
     0
176
     1
290
     0
176
     1
290
     0
176
     1
290
     0
176
     1
290
     0
176
     1
 90
       50
176
     1
 40
0.0
176
     1
 40
1.0
176
     1
 90
        0
176
     1
 62
    18
420
        0
176
     1
 90
       50
176
     1
 90
        3
176
     1
 62
     5
420
      255
176
     1
290
     0
176
     1
 90
       50
176
     1
 90
       50
176
     1
 90
       50
176
     1
290
     0
176
     1
 90
       50
176
     1
 62
   256
176
     0
 40
1.0
176
     0
 90
        2
176
     1
  1
strokes_ogs.tif
176
     1
290
     0
176
     1
 40
1.0
176
     1
 40
1.0
176
     1
1001
ACAD
1000
AcDbSavedByObjectVersion
1070
     0
  0
VISUALSTYLE
  5
2C
102
{ACAD_REACTORS
330
29
102
}
330
29
100
AcDbVisualStyle
  2
Gouraud
 70
     2
177
     3
291
     1
 70
    58
 90
        2
176
     1
 90
        2
176
     1
 90
        1
176
     1
 90
        2
176
     1
 40
0.6
176
     1
 40
30.0
176
     1
 62
     7
420
 16777215
176
     1
 90
        0
176
     1
 90
        0
176
     1
 62
     7
176
     1
 62
   257
176
     1
 90
        1
176
     1
 90
        1
176
     1
 40
1.0
176
     1
 90
        0
176
     1
 62
     7
176
     1
 40
1.0
176
     1
 90
        1
176
     1
 90
        6
176
     1
 90
        2
176
     1
 62
     7
176
     1
 90
        5
176
     1
 90
        0
176
     1
 90
        0
176
     1
290
     0
176
     1
 90
       13
176
     1
 40
0.0
176
     1
 90
        0
176
     1
290
     0
176
     1
290
     1
176
     1
290
     1
176
     1
290
     0
176
     1
290
     0
176
     1
290
     0
176
     1
290
     0
176
     1
290
     0
176
     1
290
     0
176
     1
 90
       50
176
     1
 40
0.0
176
     1
 40
1.0
176
     1
 90
        0
176
     1
 62
    18
420
        0
176
     1
 90
       50
176
     1
 90
        3
176
     1
 62
     5
420
      255
176
     1
290
     0
176
     1
 90
       50
176
     1
 90
       50
176
     1
 90
       50
176
     1
290
     0
176
     1
 90
       50
176
     1
 62
   256
176
     0
 40
1.0
176
     0
 90
        2
176
     1
  1
strokes_ogs.tif
176
     1
290
     0
176
     1
 40
1.0
176
     1
 40
1.0
176
     1
1001
ACAD
1000
AcDbSavedByObjectVersion
1070
     0
  0
VISUALSTYLE
  5
2D
102
{ACAD_REACTORS
330
29
102
}
330
29
100
AcDbVisualStyle
  2
GouraudWithEdges
 70
     3
177
     3
291
     1
 70
    58
 90
        2
176
     1
 90
        2
176
     1
 90
        1
176
     1
 90
        2
176
     1
 40
0.6
176
     1
 40
30.0
176
     1
 62
     7
420
 16777215
176
     1
 90
        1
176
     1
 90
        0
176
     1
 62
     7
176
     1
 62
   257
176
     1
 90
        1
176
     1
 90
        1
176
     1
 40
1.0
176
     1
 90
        0
176
     1
 62
   257
176
     1
 40
1.0
176
     1
 90
        1
176
     1
 90
        6
176
     1
 90
        2
176
     1
 62
     7
176
     1
 90
        5
176
     1
 90
        0
176
     1
 90
        0
176
     1
290
     0
176
     1
 90
       13
176
     1
 40
0.0
176
     1
 90
        0
176
     1
290
     0
176
     1
290
     1
176
     1
290
     1
176
     1
290
     0
176
     1
290
     0
176
     1
290
     0
176
     1
290
     0
176
     1
290
     0
176
     1
290
     0
176
     1
 90
       50
176
     1
 40
0.0
176
     1
 40
1.0
176
     1
 90
        0
176
     1
 62
    18
420
        0
176
     1
 90
       50
176
     1
 90
        3
176
     1
 62
     5
420
      255
176
     1
290
     0
176
     1
 90
       50
176
     1
 90
       50
176
     1
 90
       50
176
     1
290
     0
176
     1
 90
       50
176
     1
 62
   256
176
     0
 40
1.0
176
     0
 90
        2
176
     1
  1
strokes_ogs.tif
176
     1
290
     0
176
     1
 40
1.0
176
     1
 40
1.0
176
     1
1001
ACAD
1000
AcDbSavedByObjectVersion
1070
     0
  0
VISUALSTYLE
  5
31
102
{ACAD_REACTORS
330
29
102
}
330
29
100
AcDbVisualStyle
  2
Hidden
 70
     6
177
     3
291
     0
 70
    58
 90
        1
176
     1
 90
        2
176
     1
 90
        2
176
     1
 90
        0
176
     1
 40
0.6
176
     1
 40
30.0
176
     1
 62
     7
420
 16777215
176
     1
 90
        2
176
     1
 90
        2
176
     1
 62
     7
176
     1
 62
   257
176
     1
 90
        2
176
     1
 90
        1
176
     1
 40
40.0
176
     1
 90
        0
176
     1
 62
   257
176
     1
 40
1.0
176
     1
 90
        1
176
     1
 90
        6
176
     1
 90
        2
176
     1
 62
     7
176
     1
 90
        3
176
     1
 90
        0
176
     1
 90
        0
176
     1
290
     0
176
     1
 90
        1
176
     1
 40
0.0
176
     1
 90
        0
176
     1
290
     0
176
     1
290
     1
176
     1
290
     1
176
     1
290
     0
176
     1
290
     0
176
     1
290
     0
176
     1
290
     0
176
     1
290
     0
176
     1
290
     0
176
     1
 90
       50
176
     1
 40
0.0
176
     1
 40
1.0
176
     1
 90
        0
176
     1
 62
    18
420
        0
176
     1
 90
       50
176
     1
 90
        3
176
     1
 62
     5
420
      255
176
     1
290
     0
176
     1
 90
       50
176
     1
 90
       50
176
     1
 90
       50
176
     1
290
     0
176
     1
 90
       50
176
     1
 62
   256
176
     0
 40
1.0
176
     0
 90
        2
176
     1
  1
strokes_ogs.tif
176
     1
290
     0
176
     1
 40
1.0
176
     1
 40
1.0
176
     1
1001
ACAD
1000
AcDbSavedByObjectVersion
1070
     0
  0
VISUALSTYLE
  5
3F
102
{ACAD_REACTORS
330
29
102
}
330
29
100
AcDbVisualStyle
  2
JitterOff
 70
    20
177
     3
291
     1
 70
    58
 90
        2
176
     0
 90
        2
176
     0
 90
        0
176
     0
 90
        0
176
     0
 40
0.6
176
     0
 40
30.0
176
     0
 62
     7
420
 16777215
176
     0
 90
        1
176
     0
 90
        4
176
     0
 62
     7
176
     0
 62
   257
176
     0
 90
        1
176
     0
 90
        1
176
     0
 40
1.0
176
     0
 90
       10
176
     2
 62
     7
176
     0
 40
1.0
176
     0
 90
        1
176
     0
 90
        6
176
     0
 90
        2
176
     0
 62
     7
176
     0
 90
        5
176
     0
 90
        0
176
     0
 90
        0
176
     0
290
     0
176
     0
 90
        1
176
     0
 40
0.0
176
     0
 90
        0
176
     0
290
     0
176
     0
290
     1
176
     0
290
     1
176
     0
290
     0
176
     0
290
     0
176
     0
290
     0
176
     0
290
     0
176
     0
290
     0
176
     0
290
     0
176
     0
 90
       50
176
     0
 40
0.0
176
     0
 40
1.0
176
     0
 90
        0
176
     0
 62
    18
420
        0
176
     0
 90
       50
176
     0
 90
        3
176
     0
 62
     5
420
      255
176
     0
290
     0
176
     0
 90
       50
176
     0
 90
       50
176
     0
 90
       50
176
     0
290
     0
176
     0
 90
       50
176
     0
 62
   256
176
     0
 40
1.0
176
     0
 90
        2
176
     0
  1
strokes_ogs.tif
176
     0
290
     0
176
     0
 40
1.0
176
     0
 40
1.0
176
     0
1001
ACAD
1000
AcDbSavedByObjectVersion
1070
     0
  0
VISUALSTYLE
  5
37
102
{ACAD_REACTORS
330
29
102
}
330
29
100
AcDbVisualStyle
  2
Linepattern
 70
    14
177
     3
291
     1
 70
    58
 90
        2
176
     1
 90
        2
176
     1
 90
        0
176
     1
 90
        0
176
     1
 40
0.6
176
     1
 40
30.0
176
     1
 62
     7
420
 16777215
176
     1
 90
        1
176
     1
 90
        4
176
     1
 62
     7
176
     1
 62
   257
176
     1
 90
        7
176
     1
 90
        7
176
     1
 40
1.0
176
     1
 90
        8
176
     1
 62
     7
176
     1
 40
1.0
176
     1
 90
        1
176
     1
 90
        6
176
     1
 90
        2
176
     1
 62
     7
176
     1
 90
        5
176
     1
 90
        0
176
     1
 90
        0
176
     1
290
     0
176
     1
 90
        1
176
     1
 40
0.0
176
     1
 90
        0
176
     1
290
     0
176
     1
290
     1
176
     1
290
     1
176
     1
290
     0
176
     1
290
     0
176
     1
290
     0
176
     1
290
     0
176
     1
290
     0
176
     1
290
     0
176
     1
 90
       50
176
     1
 40
0.0
176
     1
 40
1.0
176
     1
 90
        0
176
     1
 62
    18
420
        0
176
     1
 90
       50
176
     1
 90
        3
176
     1
 62
     5
420
      255
176
     1
290
     0
176
     1
 90
       50
176
     1
 90
       50
176
     1
 90
       50
176
     1
290
     0
176
     1
 90
       50
176
     1
 62
   256
176
     0
 40
1.0
176
     0
 90
        2
176
     1
  1
strokes_ogs.tif
176
     1
290
     0
176
     1
 40
1.0
176
     1
 40
1.0
176
     1
1001
ACAD
1000
AcDbSavedByObjectVersion
1070
     0
  0
VISUALSTYLE
  5
40
102
{ACAD_REACTORS
330
29
102
}
330
29
100
AcDbVisualStyle
  2
OverhangOff
 70
    21
177
     3
291
     1
 70
    58
 90
        2
176
     0
 90
        2
176
     0
 90
        0
176
     0
 90
        0
176
     0
 40
0.6
176
     0
 40
30.0
176
     0
 62
     7
420
 16777215
176
     0
 90
        1
176
     0
 90
        4
176
     0
 62
     7
176
     0
 62
   257
176
     0
 90
        1
176
     0
 90
        1
176
     0
 40
1.0
176
     0
 90
        9
176
     2
 62
     7
176
     0
 40
1.0
176
     0
 90
        1
176
     0
 90
        6
176
     0
 90
        2
176
     0
 62
     7
176
     0
 90
        5
176
     0
 90
        0
176
     0
 90
        0
176
     0
290
     0
176
     0
 90
        1
176
     0
 40
0.0
176
     0
 90
        0
176
     0
290
     0
176
     0
290
     1
176
     0
290
     1
176
     0
290
     0
176
     0
290
     0
176
     0
290
     0
176
     0
290
     0
176
     0
290
     0
176
     0
290
     0
176
     0
 90
       50
176
     0
 40
0.0
176
     0
 40
1.0
176
     0
 90
        0
176
     0
 62
    18
420
        0
176
     0
 90
       50
176
     0
 90
        3
176
     0
 62
     5
420
      255
176
     0
290
     0
176
     0
 90
       50
176
     0
 90
       50
176
     0
 90
       50
176
     0
290
     0
176
     0
 90
       50
176
     0
 62
   256
176
     0
 40
1.0
176
     0
 90
        2
176
     0
  1
strokes_ogs.tif
176
     0
290
     0
176
     0
 40
1.0
176
     0
 40
1.0
176
     0
1001
ACAD
1000
AcDbSavedByObjectVersion
1070
     0
  0
VISUALSTYLE
  5
33
102
{ACAD_REACTORS
330
29
102
}
330
29
100
AcDbVisualStyle
  2
Realistic
 70
     8
177
     3
291
     0
 70
    58
 90
        2
176
     1
 90
        3
176
     1
 90
        0
176
     1
 90
        2
176
     1
 40
0.6
176
     1
 40
30.0
176
     1
 62
     7
420
 16777215
176
     1
 90
        0
176
     1
 90
        0
176
     1
 62
     7
176
     1
 62
   257
176
     1
 90
        1
176
     1
 90
        1
176
     1
 40
1.0
176
     1
 90
        8
176
     1
 62
   257
176
     1
 40
1.0
176
     1
 90
        1
176
     1
 90
        6
176
     1
 90
        2
176
     1
 62
     7
176
     1
 90
        3
176
     1
 90
        0
176
     1
 90
        0
176
     1
290
     0
176
     1
 90
       13
176
     1
 40
0.0
176
     1
 90
        0
176
     1
290
     0
176
     1
290
     1
176
     1
290
     1
176
     1
290
     0
176
     1
290
     0
176
     1
290
     0
176
     1
290
     0
176
     1
290
     0
176
     1
290
     0
176
     1
 90
       50
176
     1
 40
0.0
176
     1
 40
1.0
176
     1
 90
        0
176
     1
 62
    18
420
        0
176
     1
 90
       50
176
     1
 90
        3
176
     1
 62
     5
420
      255
176
     1
290
     0
176
     1
 90
       50
176
     1
 90
       50
176
     1
 90
       50
176
     1
290
     0
176
     1
 90
       50
176
     1
 62
   256
176
     0
 40
1.0
176
     0
 90
        2
176
     1
  1
strokes_ogs.tif
176
     1
290
     0
176
     1
 40
1.0
176
     1
 40
1.0
176
     1
1001
ACAD
1000
AcDbSavedByObjectVersion
1070
     0
  0
VISUALSTYLE
  5
3E
102
{ACAD_REACTORS
330
29
102
}
330
29
100
AcDbVisualStyle
  2
Shaded
 70
    27
177
     3
291
     0
 70
    58
 90
        2
176
     1
 90
        2
176
     1
 90
        1
176
     1
 90
        2
176
     1
 40
0.6
176
     1
 40
30.0
176
     1
 62
     7
420
 16777215
176
     1
 90
        0
176
     1
 90
        4
176
     1
 62
     7
176
     1
 62
   257
176
     1
 90
        1
176
     1
 90
        1
176
     1
 40
1.0
176
     1
 90
        8
176
     1
 62
   257
176
     1
 40
1.0
176
     1
 90
        1
176
     1
 90
        6
176
     1
 90
        2
176
     1
 62
     8
420
  7895160
176
     1
 90
        3
176
     1
 90
        0
176
     1
 90
        0
176
     1
290
     0
176
     1
 90
        5
176
     1
 40
0.0
176
     1
 90
        0
176
     1
290
     0
176
     1
290
     1
176
     1
290
     1
176
     1
290
     0
176
     1
290
     0
176
     1
290
     0
176
     1
290
     0
176
     1
290
     0
176
     1
290
     0
176
     1
 90
       50
176
     1
 40
0.0
176
     1
 40
1.0
176
     1
 90
        0
176
     1
 62
    18
420
        0
176
     1
 90
       50
176
     1
 90
        3
176
     1
 62
     5
420
      255
176
     1
290
     0
176
     1
 90
       50
176
     1
 90
       50
176
     1
 90
       50
176
     1
290
     0
176
     1
 90
       50
176
     1
 62
   256
176
     0
 40
1.0
176
     0
 90
        2
176
     1
  1
strokes_ogs.tif
176
     1
290
     0
176
     1
 40
1.0
176
     1
 40
1.0
176
     1
1001
ACAD
1000
AcDbSavedByObjectVersion
1070
     0
  0
VISUALSTYLE
  5
3D
102
{ACAD_REACTORS
330
29
102
}
330
29
100
AcDbVisualStyle
  2
Shaded with edges
 70
    26
177
     3
291
     0
 70
    58
 90
        2
176
     1
 90
        2
176
     1
 90
        1
176
     1
 90
        2
176
     1
 40
0.6
176
     1
 40
30.0
176
     1
 62
     7
420
 16777215
176
     1
 90
        1
176
     1
 90
        2
176
     1
 62
     7
176
     1
 62
   257
176
     1
 90
        2
176
     1
 90
        1
176
     1
 40
1.0
176
     1
 90
        8
176
     1
 62
   257
176
     1
 40
1.0
176
     1
 90
        1
176
     1
 90
        6
176
     1
 90
        2
176
     1
 62
     7
176
     1
 90
        3
176
     1
 90
        0
176
     1
 90
        0
176
     1
290
     0
176
     1
 90
        5
176
     1
 40
0.0
176
     1
 90
        0
176
     1
290
     0
176
     1
290
     1
176
     1
290
     1
176
     1
290
     0
176
     1
290
     0
176
     1
290
     0
176
     1
290
     0
176
     1
290
     0
176
     1
290
     0
176
     1
 90
       50
176
     1
 40
0.0
176
     1
 40
1.0
176
     1
 90
        0
176
     1
 62
    18
420
        0
176
     1
 90
       50
176
     1
 90
        3
176
     1
 62
     5
420
      255
176
     1
290
     0
176
     1
 90
       50
176
     1
 90
       50
176
     1
 90
       50
176
     1
290
     0
176
     1
 90
       50
176
     1
 62
   256
176
     0
 40
1.0
176
     0
 90
        2
176
     1
  1
strokes_ogs.tif
176
     1
290
     0
176
     1
 40
1.0
176
     1
 40
1.0
176
     1
1001
ACAD
1000
AcDbSavedByObjectVersion
1070
     0
  0
VISUALSTYLE
  5
3A
102
{ACAD_REACTORS
330
29
102
}
330
29
100
AcDbVisualStyle
  2
Shades of Gray
 70
    23
177
     3
291
     0
 70
    58
 90
        2
176
     1
 90
        2
176
     1
 90
        3
176
     1
 90
        0
176
     1
 40
0.6
176
     1
 40
30.0
176
     1
 62
     7
420
 16777215
176
     1
 90
        2
176
     1
 90
        2
176
     1
 62
     7
176
     1
 62
     7
176
     1
 90
        1
176
     1
 90
        1
176
     1
 40
40.0
176
     1
 90
        8
176
     1
 62
     7
176
     1
 40
1.0
176
     1
 90
        1
176
     1
 90
        6
176
     1
 90
        2
176
     1
 62
     7
176
     1
 90
        3
176
     1
 90
        0
176
     1
 90
        0
176
     1
290
     0
176
     1
 90
        1
176
     1
 40
0.0
176
     1
 90
        0
176
     1
290
     0
176
     1
290
     1
176
     1
290
     1
176
     1
290
     0
176
     1
290
     0
176
     1
290
     0
176
     1
290
     0
176
     1
290
     0
176
     1
290
     0
176
     1
 90
       50
176
     1
 40
0.0
176
     1
 40
1.0
176
     1
 90
        0
176
     1
 62
    18
420
        0
176
     1
 90
       50
176
     1
 90
        3
176
     1
 62
     5
420
      255
176
     1
290
     0
176
     1
 90
       50
176
     1
 90
       50
176
     1
 90
       50
176
     1
290
     0
176
     1
 90
       50
176
     1
 62
   256
176
     0
 40
1.0
176
     0
 90
        2
176
     1
  1
strokes_ogs.tif
176
     1
290
     0
176
     1
 40
1.0
176
     1
 40
1.0
176
     1
1001
ACAD
1000
AcDbSavedByObjectVersion
1070
     0
  0
VISUALSTYLE
  5
3B
102
{ACAD_REACTORS
330
29
102
}
330
29
100
AcDbVisualStyle
  2
Sketchy
 70
    24
177
     3
291
     0
 70
    58
 90
        1
176
     1
 90
        2
176
     1
 90
        2
176
     1
 90
        0
176
     1
 40
0.6
176
     1
 40
30.0
176
     1
 62
     7
420
 16777215
176
     1
 90
        2
176
     1
 90
        2
176
     1
 62
     7
176
     1
 62
     7
176
     1
 90
        1
176
     1
 90
        1
176
     1
 40
40.0
176
     1
 90
       11
176
     1
 62
     7
176
     1
 40
1.0
176
     1
 90
        1
176
     1
 90
        6
176
     1
 90
        2
176
     1
 62
     7
176
     1
 90
        6
176
     1
 90
        0
176
     1
 90
        0
176
     1
290
     0
176
     1
 90
        1
176
     1
 40
0.0
176
     1
 90
        0
176
     1
290
     0
176
     1
290
     1
176
     1
290
     1
176
     1
290
     0
176
     1
290
     0
176
     1
290
     0
176
     1
290
     0
176
     1
290
     0
176
     1
290
     0
176
     1
 90
       50
176
     1
 40
0.0
176
     1
 40
1.0
176
     1
 90
        0
176
     1
 62
    18
420
        0
176
     1
 90
       50
176
     1
 90
        3
176
     1
 62
     5
420
      255
176
     1
290
     0
176
     1
 90
       50
176
     1
 90
       50
176
     1
 90
       50
176
     1
290
     0
176
     1
 90
       50
176
     1
 62
   256
176
     0
 40
1.0
176
     0
 90
        2
176
     1
  1
strokes_ogs.tif
176
     1
290
     0
176
     1
 40
1.0
176
     1
 40
1.0
176
     1
1001
ACAD
1000
AcDbSavedByObjectVersion
1070
     0
  0
VISUALSTYLE
  5
36
102
{ACAD_REACTORS
330
29
102
}
330
29
100
AcDbVisualStyle
  2
Thicken
 70
    13
177
     3
291
     1
 70
    58
 90
        2
176
     1
 90
        2
176
     1
 90
        0
176
     1
 90
        0
176
     1
 40
0.6
176
     1
 40
30.0
176
     1
 62
     7
420
 16777215
176
     1
 90
        1
176
     1
 90
        4
176
     1
 62
     7
176
     1
 62
   257
176
     1
 90
        1
176
     1
 90
        1
176
     1
 40
1.0
176
     1
 90
       12
176
     1
 62
     7
176
     1
 40
1.0
176
     1
 90
        1
176
     1
 90
        6
176
     1
 90
        2
176
     1
 62
     7
176
     1
 90
        5
176
     1
 90
        0
176
     1
 90
        0
176
     1
290
     0
176
     1
 90
        1
176
     1
 40
0.0
176
     1
 90
        0
176
     1
290
     0
176
     1
290
     1
176
     1
290
     1
176
     1
290
     0
176
     1
290
     0
176
     1
290
     0
176
     1
290
     0
176
     1
290
     0
176
     1
290
     0
176
     1
 90
       50
176
     1
 40
0.0
176
     1
 40
1.0
176
     1
 90
        0
176
     1
 62
    18
420
        0
176
     1
 90
       50
176
     1
 90
        3
176
     1
 62
     5
420
      255
176
     1
290
     0
176
     1
 90
       50
176
     1
 90
       50
176
     1
 90
       50
176
     1
290
     0
176
     1
 90
       50
176
     1
 62
   256
176
     0
 40
1.0
176
     0
 90
        2
176
     1
  1
strokes_ogs.tif
176
     1
290
     0
176
     1
 40
1.0
176
     1
 40
1.0
176
     1
1001
ACAD
1000
AcDbSavedByObjectVersion
1070
     0
  0
VISUALSTYLE
  5
30
102
{ACAD_REACTORS
330
29
102
}
330
29
100
AcDbVisualStyle
  2
Wireframe
 70
     5
177
     3
291
     0
 70
    58
 90
        0
176
     1
 90
        2
176
     1
 90
        0
176
     1
 90
        0
176
     1
 40
0.6
176
     1
 40
30.0
176
     1
 62
     7
420
 16777215
176
     1
 90
        1
176
     1
 90
        4
176
     1
 62
     7
176
     1
 62
   257
176
     1
 90
        1
176
     1
 90
        1
176
     1
 40
1.0
176
     1
 90
        0
176
     1
 62
   257
176
     1
 40
1.0
176
     1
 90
        1
176
     1
 90
        6
176
     1
 90
        2
176
     1
 62
     7
176
     1
 90
        3
176
     1
 90
        0
176
     1
 90
        0
176
     1
290
     0
176
     1
 90
        1
176
     1
 40
0.0
176
     1
 90
        0
176
     1
290
     0
176
     1
290
     1
176
     1
290
     1
176
     1
290
     0
176
     1
290
     0
176
     1
290
     0
176
     1
290
     0
176
     1
290
     0
176
     1
290
     0
176
     1
 90
       50
176
     1
 40
0.0
176
     1
 40
1.0
176
     1
 90
        0
176
     1
 62
    18
420
        0
176
     1
 90
       50
176
     1
 90
        3
176
     1
 62
     5
420
      255
176
     1
290
     0
176
     1
 90
       50
176
     1
 90
       50
176
     1
 90
       50
176
     1
290
     0
176
     1
 90
       50
176
     1
 62
   256
176
     0
 40
1.0
176
     0
 90
        2
176
     1
  1
strokes_ogs.tif
176
     1
290
     0
176
     1
 40
1.0
176
     1
 40
1.0
176
     1
1001
ACAD
1000
AcDbSavedByObjectVersion
1070
     0
  0
VISUALSTYLE
  5
3C
102
{ACAD_REACTORS
330
29
102
}
330
29
100
AcDbVisualStyle
  2
X-Ray
 70
    25
177
     3
291
     0
 70
    58
 90
        2
176
     1
 90
        2
176
     1
 90
        1
176
     1
 90
        1
176
     1
 40
0.5
176
     1
 40
30.0
176
     1
 62
     7
420
 16777215
176
     1
 90
        1
176
     1
 90
        0
176
     1
 62
     7
176
     1
 62
   257
176
     1
 90
        1
176
     1
 90
        1
176
     1
 40
1.0
176
     1
 90
        8
176
     1
 62
     7
176
     1
 40
1.0
176
     1
 90
        1
176
     1
 90
        6
176
     1
 90
        2
176
     1
 62
     7
176
     1
 90
        3
176
     1
 90
        0
176
     1
 90
        0
176
     1
290
     0
176
     1
 90
       13
176
     1
 40
0.0
176
     1
 90
        0
176
     1
290
     0
176
     1
290
     1
176
     1
290
     1
176
     1
290
     0
176
     1
290
     0
176
     1
290
     0
176
     1
290
     0
176
     1
290
     0
176
     1
290
     0
176
     1
 90
       50
176
     1
 40
0.0
176
     1
 40
1.0
176
     1
 90
        0
176
     1
 62
    18
420
        0
176
     1
 90
       50
176
     1
 90
        3
176
     1
 62
     5
420
      255
176
     1
290
     0
176
     1
 90
       50
176
     1
 90
       50
176
     1
 90
       50
176
     1
290
     0
176
     1
 90
       50
176
     1
 62
   256
176
     0
 40
1.0
176
     0
 90
        2
176
     1
  1
strokes_ogs.tif
176
     1
290
     0
176
     1
 40
1.0
176
     1
 40
1.0
176
     1
1001
ACAD
1000
AcDbSavedByObjectVersion
1070
     0
  0
DICTIONARYVAR
  5
213
102
{ACAD_REACTORS
330
20E
102
}
330
20E
100
DictionaryVariables
280
     0
  1
1:1
  0
DICTIONARYVAR
  5
210
102
{ACAD_REACTORS
330
20E
102
}
330
20E
100
DictionaryVariables
280
     0
  1
STANDARD
  0
DICTIONARYVAR
  5
20F
102
{ACAD_REACTORS
330
20E
102
}
330
20E
100
DictionaryVariables
280
     0
  1
STANDARD
  0
DICTIONARYVAR
  5
211
102
{ACAD_REACTORS
330
20E
102
}
330
20E
100
DictionaryVariables
280
     0
  1
Imperial24
  0
DICTIONARYVAR
  5
212
102
{ACAD_REACTORS
330
20E
102
}
330
20E
100
DictionaryVariables
280
     0
  1
Imperial24
  0
DICTIONARY
  5
219
330
6B
100
AcDbDictionary
280
     1
281
     1
  3
ACAD_XREC_ROUNDTRIP
360
21A
  0
DICTIONARY
  5
1A
330
19
100
AcDbDictionary
280
     1
281
     1
  3
BUMPTILE
360
1C
  3
DIFFUSETILE
360
1B
  3
OPACITYTILE
360
1F
  3
REFLECTIONTILE
360
1E
  3
REFRACTIONTILE
360
20
  3
SPECULARTILE
360
1D
  0
DICTIONARY
  5
12
330
11
100
AcDbDictionary
280
     1
281
     1
  3
BUMPTILE
360
14
  3
DIFFUSETILE
360
13
  3
OPACITYTILE
360
17
  3
REFLECTIONTILE
360
16
  3
REFRACTIONTILE
360
18
  3
SPECULARTILE
360
15
  0
DICTIONARY
  5
22
330
21
100
AcDbDictionary
280
     1
281
     1
  3
BUMPTILE
360
24
  3
DIFFUSETILE
360
23
  3
OPACITYTILE
360
27
  3
REFLECTIONTILE
360
26
  3
REFRACTIONTILE
360
28
  3
SPECULARTILE
360
25
  0
DICTIONARY
  5
217
330
69
100
AcDbDictionary
280
     1
281
     1
  3
ACAD_XREC_ROUNDTRIP
360
218
  0
DICTIONARY
  5
214
330
65
100
AcDbDictionary
280
     1
281
     1
  3
ACAD_ROUNDTRIP_2008_TABLESTYLE_CELLSTYLEMAP
360
215
  0
XRECORD
  5
21A
102
{ACAD_REACTORS
330
219
102
}
330
219
100
AcDbXrecord
280
     1
102
DISPLAYNAME
  1
Imperial24
102
FLAGS
 90
        0
  0
XRECORD
  5
1C
102
{ACAD_REACTORS
330
1A
102
}
330
1A
100
AcDbXrecord
280
     1
270
     1
271
     1
  0
XRECORD
  5
1B
102
{ACAD_REACTORS
330
1A
102
}
330
1A
100
AcDbXrecord
280
     1
270
     1
271
     1
  0
XRECORD
  5
1F
102
{ACAD_REACTORS
330
1A
102
}
330
1A
100
AcDbXrecord
280
     1
270
     1
271
     1
  0
XRECORD
  5
1E
102
{ACAD_REACTORS
330
1A
102
}
330
1A
100
AcDbXrecord
280
     1
270
     1
271
     1
  0
XRECORD
  5
20
102
{ACAD_REACTORS
330
1A
102
}
330
1A
100
AcDbXrecord
280
     1
270
     1
271
     1
  0
XRECORD
  5
1D
102
{ACAD_REACTORS
330
1A
102
}
330
1A
100
AcDbXrecord
280
     1
270
     1
271
     1
  0
XRECORD
  5
14
102
{ACAD_REACTORS
330
12
102
}
330
12
100
AcDbXrecord
280
     1
270
     1
271
     1
  0
XRECORD
  5
13
102
{ACAD_REACTORS
330
12
102
}
330
12
100
AcDbXrecord
280
     1
270
     1
271
     1
  0
XRECORD
  5
17
102
{ACAD_REACTORS
330
12
102
}
330
12
100
AcDbXrecord
280
     1
270
     1
271
     1
  0
XRECORD
  5
16
102
{ACAD_REACTORS
330
12
102
}
330
12
100
AcDbXrecord
280
     1
270
     1
271
     1
  0
XRECORD
  5
18
102
{ACAD_REACTORS
330
12
102
}
330
12
100
AcDbXrecord
280
     1
270
     1
271
     1
  0
XRECORD
  5
15
102
{ACAD_REACTORS
330
12
102
}
330
12
100
AcDbXrecord
280
     1
270
     1
271
     1
  0
XRECORD
  5
24
102
{ACAD_REACTORS
330
22
102
}
330
22
100
AcDbXrecord
280
     1
270
     1
271
     1
  0
XRECORD
  5
23
102
{ACAD_REACTORS
330
22
102
}
330
22
100
AcDbXrecord
280
     1
270
     1
271
     1
  0
XRECORD
  5
27
102
{ACAD_REACTORS
330
22
102
}
330
22
100
AcDbXrecord
280
     1
270
     1
271
     1
  0
XRECORD
  5
26
102
{ACAD_REACTORS
330
22
102
}
330
22
100
AcDbXrecord
280
     1
270
     1
271
     1
  0
XRECORD
  5
28
102
{ACAD_REACTORS
330
22
102
}
330
22
100
AcDbXrecord
280
     1
270
     1
271
     1
  0
XRECORD
  5
25
102
{ACAD_REACTORS
330
22
102
}
330
22
100
AcDbXrecord
280
     1
270
     1
271
     1
  0
XRECORD
  5
218
102
{ACAD_REACTORS
330
217
102
}
330
217
100
AcDbXrecord
280
     1
102
DISPLAYNAME
  1
Imperial24
102
FLAGS
 90
        0
  0
CELLSTYLEMAP
  5
215
102
{ACAD_REACTORS
330
214
102
}
330
214
100
AcDbCellStyleMap
 90
        3
300
CELLSTYLE
  1
TABLEFORMAT_BEGIN
 90
        5
170
     1
 91
        0
 92
    32768
 62
   257
 93
        1
300
CONTENTFORMAT
  1
CONTENTFORMAT_BEGIN
 90
        0
 91
        0
 92
      512
 93
        0
300

 40
0.0
140
1.0
 94
        5
 62
     0
340
55
144
0.25
309
CONTENTFORMAT_END
171
     0
 94
        0
309
TABLEFORMAT_END
  1
CELLSTYLE_BEGIN
 90
        1
 91
        1
300
_TITLE
309
CELLSTYLE_END
300
CELLSTYLE
  1
TABLEFORMAT_BEGIN
 90
        5
170
     1
 91
        0
 92
        0
 62
   257
 93
        1
300
CONTENTFORMAT
  1
CONTENTFORMAT_BEGIN
 90
        0
 91
        0
 92
      512
 93
        0
300

 40
0.0
140
1.0
 94
        5
 62
     0
340
55
144
0.18
309
CONTENTFORMAT_END
171
     0
 94
        0
309
TABLEFORMAT_END
  1
CELLSTYLE_BEGIN
 90
        2
 91
        1
300
_HEADER
309
CELLSTYLE_END
300
CELLSTYLE
  1
TABLEFORMAT_BEGIN
 90
        5
170
     1
 91
        0
 92
        0
 62
   257
 93
        1
300
CONTENTFORMAT
  1
CONTENTFORMAT_BEGIN
 90
        0
 91
        0
 92
      512
 93
        0
300

 40
0.0
140
1.0
 94
        2
 62
     0
340
55
144
0.18
309
CONTENTFORMAT_END
171
     0
 94
        0
309
TABLEFORMAT_END
  1
CELLSTYLE_BEGIN
 90
        3
 91
        2
300
_DATA
309
CELLSTYLE_END
  0
ENDSEC
  0
EOF
